Oops, an error
Loading. Please wait.

Dont Go Tab

version 1
version 1

Intro

Whole song

262 views 1 this week
no commentswrite comment
1 2 3 4 5
please rate
add to favorites
launch autoscroll
font size
0
reset
how to read this tab
guitar tuner
Autoscroll
slow
fast
+/-
esc
set tempo
stop
Help us to improve Ultimate-Guitar.com Take our survey!
×
Difficulty
Capo
novice
3rd fret
Here's the tab for the intro riff for Don't Go by Wretch 32 & Josh Kumra :)
This is what I came up with and it sounded right to me so I hope you find this helpful:

Standard Tuning
Capo 3

E--------------------------------|
B--------------------------------|
G--------------------------------|
D---------------4-2----4-2-----5-|
A--3--3-2-0---5------5------2----|
E--------------------------------|

or

E-------------------------------------|
B-------------------------------------|
G----------------------------------0--|
D--------------0-4-2---0-4-2----------|
A--3--3-2-0---------------------2-----|
E-------------------------------------|

This is basically it, and is repeated throughout most of the song :)
comments
We did not receive enough feedback on this tab! Please rate:
print report bad tab
1 2 3 4 5
I want to post or [tab]
guest
You may want to rate the tab now too:
select rating
Please do not post tabs as comments. Select "correction" instead!