Oops, an error
Loading. Please wait.

Dopamine Dream Chords

1 view 1 this week
no commentswrite comment
1 2 3 4 5
3 more votes to show rating
add to favorites
launch autoscroll
font size
0
reset
transpose
0
reset
display chords
guitar tuner
Autoscroll
slow
fast
+/-
esc
set tempo
stop
Help us to improve Ultimate-Guitar.com Take our survey!
×
Author
Difficulty
intermediate
Dopamine Dream - Wrinkle Neck Mules
Track 4 - Let the Lead Fly (2009)
-----------------------------------------------------
Standard Tuning

[Intro]
                                             D 
e|-----------------------------|--------------------------|
B|-----------------------------|--------------------------|
G|------7----------------------|--------------------------|
D|--7h9---9-7---7--7h9-7-------|--------------------------|   
A|------------9----------9-7-5-|------5-7-7b-5------------|
E|-----------------------------|--5-7---------------------|

      D                G D        D                G 
e|-----------------------------|--------------------------|
B|-----------------------------|--------------------------|
G|--------7--------------------|------7-------------------|
D|----7h9---9-7---7--7h9-7-----|--7-9---9-7---7--7h9------|   
A|--------------9--------------|------------9-------------|
E|-----------------------------|--------------------------|

    D              A               G               G  
e|-----------------------------|--------------------------|
B|-----------------------------|--------------------------|
G|------7----------------------|--------------------------|
D|--7h9---9-7---7--7h9-7-------|-------0-2/4 2-0----------| 
A|------------9----------9-7-5-|---0-2-----------2--------|
E|-----------------------------|-------------------3------|

[Verse]
D              A               Bm           G
Ceasing and desisting was the order of the morning 
    D                      A                      G
The order of the night was chasing those money machines 
           D               A               Bm              G
But he was fearful of the crossing and the calling of the coffin 
          D                     A                       G
Cause the Arkansas side of the river runs a little bit deep 
          D                     A                       D 
Yeah, the Arkansas side of the river runs a little bit deep

[Chorus]
         A                     G
All the women make a living undressing 
                        D 
Never taught me much of nothing that I needed to know 
A                        G                    D 
Left me with a cigarette burn and a dopamine dream 
            Bm              A 
When you’re far too old for dying young, 
           G                   D
but you’re still too young to see 
     A                 G             D 
The fires are burning low on the Kerosene 

      D                G D        D               G
e|-----------------------------|--------------------------|
B|-----------------------------|--------------------------|
G|--------7--------------------|------7-------------------|
D|----7h9---9-7---7--7h9-7-----|--7-9---9-7---7--7h9------| 
A|--------------9--------------|------------9-------------|
E|-----------------------------|--------------------------|

    D              A               G               D  
e|-----------------------------|--------------------------|
B|-----------------------------|--------------------------|
G|------7----------------------|--------------------------|
D|--7h9---9-7---7--7-9-7-------|-------0-2/4 2-0----------| 
A|------------9----------9-7-5-|---0-2-----------2-2/5----|
E|-----------------------------|--------------------------|


[Verse]
D                A                Bm          G
Buzzards and the red tail and the gravel underfoot 
D                    A                    G
Singing of the jays knowing we were up to no good 
D                   A               Bm           G
Sneaking down to High Street with a bottle and a rose 
D                           A                           G
Looking for the side of the night where they lay it down low
D                           A                           D
Looking for the side of the night where they lay it down low

[Chorus]
         A                     G
All the women make a living undressing 
                        D 
Never taught me much of nothing that I needed to know 
A                        G                    D 
Left me with a cigarette burn and a dopamine dream 
            Bm              A 
When you’re far too old for dying young, 
           G                   D
but you’re still too young to see 
     A                 G             D 
The fires are burning low on the Kerosene 

[Solo]
D A Bm G
D A G

D A Bm G
D A G
D A D

[Chorus]
         A                     G
All the women make a living undressing 
                        D 
Never taught me much of nothing that I needed to know 
A                        G                    D 
Left me with a cigarette burn and a dopamine dream 
            Bm              A 
When you’re far too old for dying young, 
           G                   D
but you’re still too young to see 
     A                 G             D A G 
The fires are burning low on the Kerosene 
     A                 G              
The fires are burning low...... 

D G D  
D G
D A G D
D A D


*********************************** 

| / Slide up 
| h Hammer-on 
| b Bend 

***********************************
Suggest correction
Give kudos to tab author, rate the tab!
1 2 3 4 5
comments
print report bad tab
guest
You may want to rate the tab now too:
select rating
Wanna post a correction for this tab? Suggest correction