Oops, an error
Loading. Please wait.

Fortune Fades Chords

19 views 1 this week
no commentswrite comment
1 2 3 4 5
3 more votes to show rating
add to favorites
launch autoscroll
font size
0
reset
transpose
0
reset
display chords
guitar tuner
Autoscroll
slow
fast
+/-
esc
set tempo
stop
Help us to improve Ultimate-Guitar.com Take our survey!
×
Author
Difficulty
Capo
intermediate
1st fret
Fortune Fades - Wrinkle Neck Mules

Track 2 - Let the Lead Fly (2009)
-----------------------------------------------------
Standard Tuning; capo 1st fret

I've tabbed the intro riff as well as the intro chords - your choice.

You can also play part of the riff (omitting the triplets) 
between the chorus and verse 2,as well as during the outro.

Give the song a listen to get a feel for it.


e|------3-----3-----3-----3--|------3-----3-----3-----3----| 
B|--3-5---3-5---3-5---3-5----|--3-5---3-5---3-5---3-5------| 
G|---------------------------|-----------------------------| 
D|---------------------------|-----------------------------| 
A|---------------------------|-----------------------------| 
E|---------------------------|-----------------------------|

e|---------------------------|-----------------------------| 
B|--5-5-5-3-0----------------|-/5-5-5-3-0------------------| 
G|------------2-4-2-0---0-0--|------------2-4-2-0---0-0--0-| 
D|---------------------------|-----------------------------| 
A|---------------------------|-----------------------------| 
E|---------------------------|-----------------------------|
                                  
e|---------------------------|--3---------3------3---------| 
B|---------------------------|----3---3-5----3-5----3------| 
G|--2-2-2-2-4-2-0--0-0-0-----|-----------------------------| 
D|---------------------------|-----------------------------| 
A|---------------------------|-----------------------------| 
E|---------------------------|-----------------------------|

[Intro]
Em C G
Em C G
Am C G


[Verse 1]
G                        C                G 
Shaking off the shadows, running from the cold 
G                             D 
Waters churn and beckon at my door 
G                   Em                C               G 
Tainted streams are flowing where the transom used to be 
        D             C               G 
Take me down with the vessel when you go
 
 
[Chorus]
        D   C           G 
Fortune fades, you’re reaching for the light 
         D  C     G 
Brighter days are falling far behind 
          Em             D             C                 G 
When your hole is dug so deep and it’s so dark you can’t see 
    D                 C                 G  
The winds will always bring you home to me 

Em C G
Em C G
Am C G


[Verse 2]
G                                C                G 
Concrete and the pilings driving deep beneath the sea 
G                                  D 
Amongst the rising waves and finer things 
G          Em             C            G 
Heavens to Betsy, to be a pearl upon a string 
        D         C             G 
Resting on your shoulder eternally 


[Chorus]
        D   C           G 
Fortune fades, you’re reaching for the light 
G        D  C     G 
Brighter days are falling far behind 
G         Em             D             C                 G 
When your hole is dug so deep and it’s so dark you can’t see 
    D                 C                 G  
The winds will always bring you home to me 


[Bridge]
   Am               C                   G            D 
No time for winding down, where I wind up is on my mind 
Am                  C               G 
Surely there’s more silver sides to see 
   Am                C                    G                 D     
No time to count the miles, counting them up just brings me down 
Am                    C             G   
Looks like we’ve been leaking gasoline


[Chorus]
        D   C           G 
Fortune fades, you’re reaching for the light 
G        D  C     G 
Brighter days are falling far behind 
G         Em             D             C                 G 
When your hole is dug so deep and it’s so dark you can’t see 
    D                 C                 G  
The winds will always bring you home to me 
G         Em             D             C                 G 
When your hole is dug so deep and it’s so dark you can’t see 
    D                 C                 G  
The winds will always bring you home to me 


[Outro]
Em C G
Em C G
Am C G


Suggest correction
Give kudos to tab author, rate the tab!
1 2 3 4 5
comments
print report bad tab
guest
You may want to rate the tab now too:
select rating
Wanna post a correction for this tab? Suggest correction