Oops, an error
Loading. Please wait.

Head Of Steam chords

25 views 1 this week
no commentswrite comment
1 2 3 4 5
3 more votes to show rating
add to favorites
×
Save as Personal and add changes to this tab that will be seen only by you. Learn more ›
×
You can save this tab as Personal to edit and correct it or add notes. All changes will be seen only by you. Learn more »
launch autoscroll
font size
0
reset
transpose
0
reset
display chords
guitar tuner
edit
Autoscroll
slow
fast
+/-
esc
set tempo
stop
Strumming
There is no strumming pattern for this song yet. and get +5 IQ
-------------------------------------------------------------------------------
                    HEAD OF STEAM - Wrinkle Neck Mules
-------------------------------------------------------------------------------
Tabbed by: A.J. Conner
E-mail: ajconner123@gmail.com

Tuning: Standard, CAPO 3RD FRET (ALL FRET NUMBERS AND CHORDS RELATIVE TO CAPO)

The previous song "Wandering Valley Prelude" goes right into this one.

DON'T FORGET, Capo on the 3rd fret!


CHORDS USED:

Em: 022000
Am: x02210
C:  x32010
D:  xx0232
Bm: x24432
G:  320033

Lead parts:


e|----------------------------0----------------------------------------------|
B|----------------------------0----------------------------------------------|
G|----------------------------0----------------------------------------------|
D|----------------------------2----------------------------------------------|
A|----------------------------2----------------------------------------------|
E|--0---3-3/5---7-7h8---7--3--0----------------------------------------------|

e|---------------------------------------------------------------------------|
B|---------------------------------------------------------------------------|
G|----------------------------12--11--7/9~-----------------------------------|
D|--0h2~---5-5/7~---9-9h10~--------------------------------------------------|
A|---------------------------------------------------------------------------|
E|---------------------------------------------------------------------------|


[INTRO]

Em 
Am  C  Em


[VERSE 1]

Em              Am
  Spotlight down, wander downtown
         C                Em
Feelin' weary and mighty weak
Em             Am                      C
  Seein' ghosts out on the hills, semaphore
                 Em
Or just opium's will?
D               Am
  No explanation makes much sense,
D               Am
  Newsprint lies and false pretense
            Bm                  C
We'll read about it all in the mornin'
         Em
When we arise


[VERSE 2]

Em           Am
  Blood found by the number 4 mine
              C                  Em
You know she caved in back in '49.
Em                       Am
  At quittin' time only souls would arise
           C                     Em
From that deep, dark anthracite mine.
D                        Am
  The company explanation made no sense
D                          Am
  Just propaganda through a rose colored lense
           Bm                 C
And we'll hear it all on the radio
         Em
When we arise


[CHORUS]

G                           D
  With teeth like tombstones and arms like graves
G                          D
  There's no escapin' the tongues sharp blade
      C         Bm                Em
Or a slow ride upon your head of steam
   C          Bm               Em
A slow ride upon your head of steam


[VERSE 3]

Em             Am
  Paul Sizemore and Eldridge Ray 
           C                        Em
dug their own graves and there they lay
Em                         
  But their souls and axes 
Am                                      C
  wander through my sleep and from this valley,
              Em
revenge they seek


[CHORUS]

G                           D
  With teeth like tombstones and arms like graves
G                          D
  There's no escapin' the tongues sharp blade
      C         Bm                Em
Or a slow ride upon your head of steam
   C          Bm               Em
A slow ride upon your head of steam


   C         Bm                Em
A slow ride upon your head of steam


[END]
N.C.


************************************
| x   mute note
| /   slide
| h   hammer-on
| ~   vibrato
************************************

            
            
Suggest correction
Creating personal tab
Creating personal tab
You can edit any tab online and save it as your Personal.

You can edit, replace or remove any tab part or add personal notes – all changes will be seen only by you.

Personal tabs can be accessed anytime from any device, even offline.
Learn more »
Give kudos to tab author, rate the tab!
1 2 3 4 5
comments
print report bad tab
guest
You may want to rate the tab now too:
select rating
Wanna post a correction for this tab? Suggest correction