Oops, an error
Loading. Please wait.

Medicine Bow Chords

13 views 1 this week
no commentswrite comment
1 2 3 4 5
3 more votes to show rating
add to favorites
launch autoscroll
font size
0
reset
transpose
0
reset
display chords
guitar tuner
Autoscroll
slow
fast
+/-
esc
set tempo
stop
Help us to improve Ultimate-Guitar.com Take our survey!
×
Author
Difficulty
novice
Medicine Bow - Wrinkle Neck Mules
Track 3 - Let the Lead Fly (2009)

Standard Tuning

The first solo is tabbed, and the chords are also given - your choice.
The E chord just before the second solo has a funny tempo change - 
(slows down then speeds up) listen to the song to get a feel for it.

[Verse 1]
A             G        E
Yellow is the color of midnight 
A              D          E
Words are just moments in time 
A                   G         D
Although the devils hovering around me 
A                D       E
They tell me I’m doing alright 

[Verse 2]
    A            G            D
The Salt and the Wind and the Teton 
    A             D             E
The Green and the Snake and the Lost 
    A        G           D
The Medicine Bow and the Big Horn 
    A              D                 E
The Blackfoot, the Crowheart and the Wood 

[Bridge]
G    D       A 
Gone are the days 
G            D       A 
Gone are the days of runoff 
G    D     A
Now everything
G   D      A               E 
Now everything is running clear

[Solo 1]
e|-------------------------|-------------------------------| 
B|-------------------------|-------------------------------| 
G|-------------------------|-------------------------------| 
D|-------------------------|-------------------------------| 
A|--------------------/5---|------------5--5-6-7-----------| 
E|--0-3-5--5-3--3-2-0------|--0-3-5---5--------------------|

e|-------------------------|-----------------------12-9----| 
B|-------------------------|-------------7-8-9--10------10-| 
G|----------------7-7-7-7--|-----7--7-8-9------------------| 
D|---5-7-7-5-5\4-----------|-7-7---------------------------| 
A|-7------------7----------|-------------------------------| 
E|-------------------------|-------------------------------|

[Solo 1]
A G D
A D E
A G D
A D E

[Verse 3]
A             G        E
Yellow is the color of midnight 
A              D          E
Words are just moments in time 
    A        G           D
The Medicine Bow and the Big Horn 
A                D       E
They tell me I’m doing alright 
        G           D     A 
Tell my friends I’m doing fine
        G           D     A 
Tell my friends I’m doing fine
E

[Solo 2]
A G D
A D E
A G D
A D E

G D A
G D A



************************************

| /  Slide up
| \  Slide down

************************************
Suggest correction
Give kudos to tab author, rate the tab!
1 2 3 4 5
comments
print report bad tab
guest
You may want to rate the tab now too:
select rating
Wanna post a correction for this tab? Suggest correction