Oops, an error
Loading. Please wait.

Pleasure Is The Absence Of Pain Chords

7 views 1 this week
no commentswrite comment
1 2 3 4 5
3 more votes to show rating
add to favorites
launch autoscroll
font size
0
reset
transpose
0
reset
simplify chords
display chords
guitar tuner
Autoscroll
slow
fast
+/-
esc
set tempo
stop
Help us to improve Ultimate-Guitar.com Take our survey!
×
Author
Difficulty
Capo
novice
2nd fret
Pleasure is the Absence of Pain  - Wrinkle Neck Mules

Track 7 - Let the Lead Fly (2009)
-------------------------------------------------------------------

Standard tuning; capo 2nd fret

Strumming pattern in verse 3 is different as indicated by chord placement.

[Intro]
e|------------------------------|------------------------------| 
B|------------------------------|------------------------------| 
G|------------------------------|------------------------------| 
D|------------2-----0-2-4-2-----|-------------2----------------| x2
A|--4-2-0---4-----4-------------|--4-2-0----4-----4-2---0-2-0--| 
E|------------------------------|---------------------4--------|

e|------------------------------|------------------------------|
B|------------------------------|------------------------------| 
G|--------2-------------------2-|------------------------------| 
D|--4-2-0-----0-2-4-----4-2-0---|------------------------------| 
A|------------------0-----------|------------------------------| 
E|------------------------------|------------------------------|

[Verse 1]
A                                     D        A
Feel the flex of the string, hear the doorbell ring 
A                             E           A
See the letter he brings that told it was gone 
A                         D        A
As the oldest of trees to fall in ’03 
A                             E              A
When Isabel’s breeze tore our roots from the ground 

[Chorus]
D                          A
Pleasure is the absence of pain 
A                          E    E7 
Pleasure is the absence of pain 
D                          A
Pleasure is the absence of pain, good Lord 
A               E          A
Pleasure is the absence of pain 

[Verse 2]
A                                      D        A
Touch the first bitter chord, know the last sad word 
A                                       E         A
Hate the sound that you heard about the old tired tree 
A                             D             A
Who lays in the dark with his corpse on his heart 
A                                E        A
That was scraped in the bark to remain to remind us that 

[Chorus]
D                          A
Pleasure is the absence of pain 
A                          E   E7
Pleasure is the absence of pain 
D                          A
Pleasure is the absence of pain, good Lord 
A               E          A
Pleasure is the absence of pain

[Verse 3]
         A          A              D               A
Hold the last soft note, clear the burrs from your throat 
         A             A             E         A
Love the pain that you wrote for the old tired tree 
        A            A             D          A
Who was strong as he stood, heart, belly and blood 
       A         A        E         A
Turned love into wood and wood into pain

[Chorus]
D                          A
Pleasure is the absence of pain 
A                          E   E7
Pleasure is the absence of pain 
D                          A
Pleasure is the absence of pain, good Lord 
A               E          A     A
Pleasure is the absence of pain

Suggest correction
Give kudos to tab author, rate the tab!
1 2 3 4 5
comments
print report bad tab
guest
You may want to rate the tab now too:
select rating
Wanna post a correction for this tab? Suggest correction