Oops, an error
Loading. Please wait.

Release The Reins Chords

10 views 1 this week
no commentswrite comment
1 2 3 4 5
3 more votes to show rating
add to favorites
launch autoscroll
font size
0
reset
transpose
0
reset
display chords
guitar tuner
Autoscroll
slow
fast
+/-
esc
set tempo
stop
Help us to improve Ultimate-Guitar.com Take our survey!
×
Author
Difficulty
intermediate
Release the Reins - Wrinkle Neck Mules

Track 6 - I Never Thought It Would Go This Far (2015)

----------------------------------------------

Standard Tuning

[INTRO] 

e|------3----------------|------3------------------------|
B|------3----------------|------3------------------------|
G|------0----------------|------0------------------------|
D|------0-----0-2-3-2-0--|------0-----0-2-0--------------| x2
A|------2-2-3------------|------2-2-3--------------------| 
E|--3-3-3----------------|--3-3-3------------------------|

[VERSE]

G               Am             C          G
I replayed that story over and over in my mind 
G                                Am        C                G
Even though I was right there it changes a little bit every time 
D                            Am                  C
I wish someone had timed you when you made that run 
D                     Am                           C              G
Would have won a gold medal for your country or at least a silver one 


e|------3----------------|------3------------------------|
B|------3----------------|------3------------------------|
G|------0----------------|------0------------------------|
D|------0-----0-2-3-2-0--|------0-----0-2-0--------------| 
A|------2-2-3------------|------2-2-3--------------------| 
E|--3-3-3----------------|--3-3-3------------------------|

[VERSE]

G                 Am             C             G
Sometimes things disappear from right in plain sight 
G                        Am             C                G
We’re full of faults, no matter how you hold it up to the light 
D                              Am                  C
Here come all the phone calls from some distance star 
D                     Am               C              G      D
Operator, tell me what’s my name? I’ve forgotten who we are 


[CHORUS]
Em          D
Release the reins 
C         G
Stick the landing 
Em          D 
Release the reins 
C         G
Stick the landing


e|------3----------------|------3------------------------|
B|------3----------------|------3------------------------|
G|------0----------------|------0------------------------|
D|------0-----0-2-3-2-0--|------0-----0-2-0--------------| 
A|------2-2-3------------|------2-2-3--------------------| 
E|--3-3-3----------------|--3-3-3------------------------|


[VERSE]

G                 Am         C                 G
I guess we could pile on but really what’s the use? 
G                                  Am                C                G
All the rage I’ve got inside won’t break my fall or get my sentence reduced 
D                              Am           C
Tie my laces for me please I can’t remember how 
D                     Am               C              G      D
Pirouette across the gravel plain and violently take a bow 

[CHORUS]
Em          D
Release the reins 
C         G
Stick the landing 
Em          D 
Release the reins 
C         G
Stick the landing

e|------3----------------|------3------------------------|
B|------3----------------|------3------------------------|
G|------0----------------|------0------------------------|
D|------0-----0-2-3-2-0--|------0-----0-2-0--------------| x2
A|------2-2-3------------|------2-2-3--------------------| 
E|--3-3-3----------------|--3-3-3------------------------|


[SOLO]
G Am C G X2
D Am C D
Am C G


[BRIDGE]
C                     G         D
Put me up there on an airplane 
C                             G         D
Give me something to kill the pain 
C                  Em       C             G
Maybe some kind of morphine right into my vein 
C                                               D
Put me on an airplane give me something for the pain

[CHORUS]

Em          D
Release the reins 
C         G
Stick the landing 
Em          D 
Release the reins 
C         G
Stick the landing

Em          D
Release the reins 
C         G
Stick the landing 
Em          D 
Release the reins 
C         G
Stick the landing

[OUTRO]

Em D C G x4

e|------3----------------|------3------------------------|
B|------3----------------|------3------------------------|
G|------0----------------|------0------------------------|
D|------0-----0-2-3-2-0--|------0-----0-2-0--------------| x2
A|------2-2-3------------|------2-2-3--------------------| 
E|--3-3-3----------------|--3-3-3------------------------|

G



Suggest correction
Give kudos to tab author, rate the tab!
1 2 3 4 5
comments
print report bad tab
guest
You may want to rate the tab now too:
select rating
Wanna post a correction for this tab? Suggest correction