Oops, an error
Loading. Please wait.

Swagger And Honesty chords

37 views 1 this week
no commentswrite comment
1 2 3 4 5
3 more votes to show rating
add to favorites
×
Save as Personal and add changes to this tab that will be seen only by you. Learn more ›
×
You can save this tab as Personal to edit and correct it or add notes. All changes will be seen only by you. Learn more »
launch autoscroll
font size
0
reset
transpose
0
reset
display chords
guitar tuner
edit
Autoscroll
slow
fast
+/-
esc
set tempo
stop
Strumming
There is no strumming pattern for this song yet. and get +5 IQ
Swagger & Honesty - Wrinkle Neck Mules
Track 12 - The Wicks Have Met (2007)
---------------------------------------------------------
Standard tuning

The song consists of basically two riffs - played in either G or C.
I have tabbed the songs using chords; play the "G-riff" where a G is indicated, 
and the "C-riff" where a C is indicated.  The chords in the solo are strummed.


    G
e|-------------------------|---------------------------| 
B|-------------------------|---------------------------| 
G|-------------------------|---------------------------| 
D|-----------0-0h2-0-------|-----------0-0h2-0------0--| 
A|------0-h2---------------|------0-h2----------2-3----| 
E|--3-3--------------------|--3-3----------------------|

    C
e|-------------------------|---------------------------| 
B|-------------------------|---------------------------| 
G|-----------0-0h2-0-------|-----------0-0h2-0---------| 
D|------0-h2---------------|------0-h2-----------------| 
A|--3-3--------------------|--3-3----------------------|
E|-------------------------|---------------------------|


[Intro]
G
G

[Verse]
        G                      G
All the swagger and the honesty 
       G                       G
In the fox blood they baptized me 
        G                        C
I’m out running, hear the hounds beating up the soil 
      D                        G
Never see the likes of me again 

G

[Verse]
       G                               G
No backslider going to get the best of me 
               G                          G
There ain’t no jester could match my levity 
         G                          C
Tell the labor to dig the holes and fill them back up 
      D                       G   
Never be the kind of life for me

[Solo]
G C G C
G D G

[Verse]
                  G                              G
Say you trust your mother, but still you cut the cards 
                  G                    G           
And you keep your money buried in the back yard 
         G                             C
Like the possum you’re not the kind to wait around and see 
        D                    G
All the swagger and the honesty

G G


*********************************** 
| h Hammer-on 
***********************************

            
            
Suggest correction
Creating personal tab
Creating personal tab
You can edit any tab online and save it as your Personal.

You can edit, replace or remove any tab part or add personal notes – all changes will be seen only by you.

Personal tabs can be accessed anytime from any device, even offline.
Learn more »
Give kudos to tab author, rate the tab!
1 2 3 4 5
comments
print report bad tab
guest
You may want to rate the tab now too:
select rating
Wanna post a correction for this tab? Suggest correction