Oops, an error
Loading. Please wait.

Crash And Burn Tab

908 views 1 this week
no commentswrite comment
1 2 3 4 5
2 more votes to show rating
add to favorites
launch autoscroll
font size
0
reset
how to read this tab
guitar tuner
Autoscroll
slow
fast
+/-
esc
set tempo
stop
Help us to improve Ultimate-Guitar.com Take our survey!
×
Author
Artist: Write This Down 
Song: Crash And Burn 
Album: The Forgotten Weekend 
This song is in Drop C# (Or Drop Db either term) 
Key: ~ = let ring 
        / = slide 

Intro (Heavy distortion): 
c#|----------------------------------------------------------------------------| 
A#|----------------------------------------------------------------------------| 
F#|----------------------------------------------------------------------------| 
C#|------3-3-3-3-3-3-----3-3-3-3-3-/5-5----7-7-7-7-7-7------5-5-5-5-5-5-3-3~---| X3 
G#|------------------1-1--------------------------------3-3--------------------| 
C#|--3-3--------------------------------3-3------------------------------------| 

verse (Clean): 
c#|--------------------------------------| 
A#|--------------------------------------| 
F#|------------3---3---3----------5--5--5| 
C#|----0---0-------------3---3-----------| X6? 
G#|----------1---1---1----------3--3--3--| 
C#|--0---0--------------3---3------------| 

outro to verse (Clean)
c#|-------------------------------| 
A#|-------------------------------| 
F#|------0---0---0-----0---0---0--| 
C#|----5---5---5-----5---5---5----| 
G#|--3-------------3--------------| 
C#|-------------------------------| 

Chorus (Heavy Distortion) 
c#|------------------------------------------| 
A#|------------------------------------------| 
F#|------------3-3-3-3-X-----------5-5-5-5-X-| 
C#|--0-0-0-0-X-3-3-3-3-X-3-3-3-3-X-5-5-5-5-X-| 
G#|--0-0-0-0-X-1-1-1-1-X-3-3-3-3-X-3-3-3-3-X-| 
C#|--0-0-0-0-X-----------3-3-3-3-X-----------| 

END BY: 
c#|-----| 
A#|-----| 
F#|-----| 
C#|--3~-| 
G#|-----| 
C#|-----| 

Part before Bridge (Heavy Distortion) 
c#|--------| 
A#|--------| 
F#|--3~-2~-| 
C#|--3~-2~-| 
G#|--1~-0~-| 
C#|--------| 

Bridge (Heavy Distortion) 
c#|----------------------------------------------------| 
A#|----------------------------------------------------| 
F#|--3-3-x-3-3-x---------------------------------------| 
C#|--3-3-x-3-3-x-0-0-x-0-0-x-3-3-x-3-3-x-5-5-x-5-5-x---| X2 
G#|--1-1-x-1-1-x-0-0-x-0-0-x-3-3-x-3-3-x-5-5-x-5-5-x---| 
C#|--------------0-0-x-0-0-x-3-3-x-3-3-x-5-5-x-5-5-x---| 
play intro riff X2 (Not 6 times the one riff twice) chorus 

outro (Heavy Distortion) 
c#|-------------------------------------------------| 
A#|-------------------------------------------------| 
F#|--3-3-x-3-3-x------------------------------------| 
C#|--3-3-x-3-3-x-0-0-x-0-0-x-3-3-x-3-3-x-5-5-5-5-0~-| 
G#|--1-1-x-1-1-x-0-0-x-0-0-x-3-3-x-3-3-x-5-5-5-5-0~-| 
C#|--------------0-0-x-0-0-x-3-3-x-3-3-x-5-5-5-5-0~-| 


order: 
intro 
verse 
pre-Chorus 
chorus 
verse 
pre-Chorus 
chorus 
part before Bridge 
bridge 
intro 
chorus 
outro 

and there you go Write this down's song Crash and Burn. Enjoy and SCREAM LOUD!!!!!!!!!!!!!!!!!!
Suggest correction
Give kudos to tab author, rate the tab!
1 2 3 4 5
comments
print report bad tab
guest
You may want to rate the tab now too:
select rating
Wanna post a correction for this tab? Suggest correction