Oops, an error
Loading. Please wait.

Concrete Gold Tab

1,332 views 6 this week
2 commentsread comments
1 2 3 4 5
2 more votes to show rating
add to favorites
launch autoscroll
font size
0
reset
how to read this tab
guitar tuner
Autoscroll
slow
fast
+/-
esc
set tempo
stop
Help us to improve Ultimate-Guitar.com Take our survey!
×
Author
Difficulty
novice
-------------------------------------------------------------------------------
                             Concrete Gold - Wu Lyf
-------------------------------------------------------------------------------
Tabbed by: Freddie Macauley
E-mail: fmacauley2@gmail.com

Tuning: Standard

I know this isn't the whole song, however I am busy at the moment and might not find 
time to tab the rest. Hence I'm uploading this in the hope that it's better than nothing as 
there are currently no tabs for this song on the site! I'll update it if I tab anymore :)

Verse:

This is played on a piano normally.

e|--9---9---12--10-----------9--|
B|-(10)(10)(10)(10)-10--10-(10)-|
G|-----------------(11)(11)-----|  X3
D|------------------------------|
A|------------------------------|
E|------------------------------|

e|------------------------------|
B|--------------10--------------|
G|--11--11--11-(11)-------------|  X1
D|-(12)(12)(12)-----------------|
A|------------------------------|
E|------------------------------|


Outro:

e|-----------12-14-17-14--(14)--12-14-14-12----12--17--|
B|----12-14---------------------------------15---------|
G|-14--------------------------------------------------|
D|-----------------------------------------------------|
A|-----------------------------------------------------|
E|-----------------------------------------------------|

Slight variations of this basic outro structure, should be easy enough to figure out 
from there.
Suggest correction
Give kudos to tab author, rate the tab!
1 2 3 4 5
comments
print report bad tab
2 comments total.
0 reply
wr1605 10 Oct 04, 2013 08:13 PM

the outro is actually this:
e|-----------------------------------------------------|
B|-------12-14-14/17-14----14-14h12----12--------------|
G|-11-14----------------14----------14----11-----------|
D|-----------------------------------------------------|
A|-----------------------------------------------------|
E|-----------------------------------------------------|

0 reply
wr1605 10 Oct 04, 2013 08:16 PM

sorry another correction to above:
e|-----------------------------------------------------|
B|-------12-14-14/17-14-------14-14h12----12--------------|
G|-11-14----------------11h14----------14----11--------|
D|-----------------------------------------------------|
A|-----------------------------------------------------|
E|-----------------------------------------------------|

guest
You may want to rate the tab now too:
select rating
Wanna post a correction for this tab? Suggest correction