Oops, an error
Loading. Please wait.

Dirt tab

by Wu Lyf
2,725 views 1 this week
1 commentread comment
1 2 3 4 5
2 more votes to show rating
add to favorites
×
Save as Personal and add changes to this tab that will be seen only by you. Learn more ›
×
You can save this tab as Personal to edit and correct it or add notes. All changes will be seen only by you. Learn more »
launch autoscroll
font size
0
reset
how to read this tab
guitar tuner
edit
Autoscroll
slow
fast
+/-
esc
set tempo
stop
Author
Difficulty
WU LYF - Dirt
All rights reserved by LYF Recordings & Wu Lyf

Ive basically tabbed out the main riff for the song, not too sure on the chorded 'funk' 
style bits near the end, but you'll get the jist.

Tuning - Standard

Main Riff -

e|--------------------------------------|
B|--------------------------------------|
G|--------------------------------------|
D|-------10--12-------10--12------------|
A|--12-----------12---------------------|
E|--------------------------------------|

e|--------------------------------------|
B|--------------------------------------|
G|-------9--12--------9-----------------|
D|--10-----------10------12-------------|
A|--------------------------------------|
E|--------------------------------------|

Enjoy, feel free to add anything to it.
As i said it still needs the Chorded parts added.

            
            
Suggest correction
Creating personal tab
Creating personal tab
You can edit any tab online and save it as your Personal.

You can edit, replace or remove any tab part or add personal notes – all changes will be seen only by you.

Personal tabs can be accessed anytime from any device, even offline.
Learn more »
Give kudos to tab author, rate the tab!
1 2 3 4 5
comments
print report bad tab
1 comment total.
+1 reply
thenexpresso 10 Apr 14, 2014 12:12 PM

the last bit of the song should be something like this

the feeling that won't come slow until you find a new home...

e----------------------------------------------------------------
b----------------------------------------------------------------
g-12--12--12-12-9-9-9--------------------------------------------
d---------------------12--12--12-12-10-10-10---------------------
a--------------------------------------------12--12--12-12-10-12-
E----------------------------------------------------------------


e----------------------------------------------------------------
b----------------------------------------------------------------
g----------------------------------------------------------------
d-10--12-12--12-12-10-12-----------------------------------------
a----------------------------------------------------------------
E----------------------------------------------------------------


and then when it goes "World Unite, Love You Forver" it just repeats the g and d strings' sequence all over again until the end.

I play the "funk" part like this:

e-----------------------------
b-121212-131313-121212-151515-
g-121212-121212-121212-121212-
d-121212-141414-121212-141414-
a-----------------------------
E-----------------------------


But I'm not 100% sure on how to play it. There is also a rythm chord that I think is made with natural harmonics on the 12th fret on the same strings as the chords sequence above.

I hope this helps (:

guest
You may want to rate the tab now too:
select rating
Wanna post a correction for this tab? Suggest correction