Oops, an error
Loading. Please wait.

Mind Made Up chords

version 1
version 1

Whole song

by Wulf
1,150 views 183 this week
no commentswrite comment
1 2 3 4 5
2 more votes to show rating
add to favorites
×
Save as Personal and add changes to this tab that will be seen only by you. Learn more ›
×
You can save this tab as Personal to edit and correct it or add notes. All changes will be seen only by you. Learn more »
launch autoscroll
font size
0
reset
transpose
0
reset
display chords
guitar tuner
edit
Autoscroll
slow
fast
+/-
esc
set tempo
stop
Strumming
There is no strumming pattern for this song yet. and get +5 IQ
[Verse 1]
e|-----2----------------------|-----2-----------3--------------|-----2--------------------------|
B|--3-----2--3--5--7-----5p3--|--3-----2--0--3-----7-----5p3---|--3-----2--0--3--5--7-----3-----|
G|--------------------2-------|-----------------------2--------|-----------------------2-----5--|
D|----------------------------|--------------------------------|--------------------------------|
A|--2-----0--------5----------|--2-----0-----------5-----------|--2-----0-----------5-----------|
E|-----------3----------------|--------------3-----------------|--------------3-----------------|
   It's funny how this shit we  Is bound to blow up in your      I said it was before and I 
      take for granted.            face.                            meant it.

e|--0-----------------------3---|
B|--0-----------------------3---|
G|--0-----------------------0---|
D|--2-----------------------0---|
A|--2-----------------------2---|
E|--0-----------------------3---|
  Me, myself and I went seperate ways
     Went seperate ways.


e|-----2---------------------|-----2-----------3----------|-----2-----------------------|
B|--3-----2--0--3--5--7---5--|--3-----2--0--3-----7---5---|--3-----2--3--5--7-----3-----|
G|---------------------------|----------------------------|--------------------2-----5--|
D|---------------------------|----------------------------|-----------------------------|
A|--2-----0-----------5------|--2-----0-----------5-------|--2-----0--------5-----------|
E|--------------3------------|--------------3-------------|-----------3-----------------|
   I didn't know just where    It took some time to realize  It's funny how this shit we
      to go, where to run and     This life is mine, no         take for granted.        
      where to hide.               compromise.

e|--0-----------------------3---|
B|--0-----------------------3---|
G|--0-----------------------0---|
D|--2-----------------------0---|
A|--2-----------------------2---|
E|--0-----------------------3---|
  I will let the sun shine on my face.


[Chorus]
Bm       A
I got my mind made up
G        D
And I ain't gon' stop
Bm       A
Gonna be on top
G        D
I got my mind made up 
Bm       A
I got my mind made up
G        D
And I ain't gon' stop
Bm       A
Gonna be on top
G        D
I got my mind made up 

[Post-Chorus]
e|-----2----------------------|-----2-----------3--------------|
B|--3-----2--3--5--7-----5p3--|--3-----2--0--3-----7-----5p3---|
G|--------------------2-------|-----------------------2--------|
D|----------------------------|--------------------------------|
A|--2-----0--------5----------|--2-----0-----------5-----------|
E|-----------3----------------|--------------3-----------------|
   Ooh, ooh, ooh, ooh, ooh, ooh (ooh, ooh)

[Verse 2]
e|-----2----------------------|-----2-----------3--------------|-----2--------------------------|
B|--3-----2--3--5--7-----5p3--|--3-----2--0--3-----7-----5p3---|--3-----2--0--3--5--7-----3-----|
G|--------------------2-------|-----------------------2--------|-----------------------2-----5--|
D|----------------------------|--------------------------------|--------------------------------|
A|--2-----0--------5----------|--2-----0-----------5-----------|--2-----0-----------5-----------|
E|-----------3----------------|--------------3-----------------|--------------3-----------------|
   Honey on her lips is what    But how it turned to             Yet I think those days are wasted
      I tasted                     bittersweet 

e|--0-----------------------3---|
B|--0-----------------------3---|
G|--0-----------------------0---|
D|--2-----------------------0---|
A|--2-----------------------2---|
E|--0-----------------------3---|
  Just gotta get up on my feet, yeah

[Chorus]
Bm       A
I got my mind made up
G        D
And I ain't gon' stop
Bm       A
Gonna be on top
G        D
I got my mind made up (I got my mind made up)
Bm       A
I got my mind made up
G        D
And I ain't gon' stop
Bm       A
Gonna be on top
G        D
I got my mind made up (mind made up)

[Bridge]
Em
I got my mind made...
A
I got my mind made...
Em
I got my mind made up
A
Two, three (Mind made up)
G
I got my mind made...
A
I got my mind made...
Em
I got my mind made up
A
Ooh, ooh, ooh, ooh, ooh, ooh (hey)

[Chorus]
Bm       A
I got my mind made up
G        D
And I ain't gon' stop
Bm       A
Gonna be on top
G        D
I got my mind made up (I got my mind made up)
Bm       A
I got my mind made up
G        D
And I ain't gon' stop
Bm       A
Gonna be on top
G        D
I got my mind made up

            
            
Suggest correction
Creating personal tab
Creating personal tab
You can edit any tab online and save it as your Personal.

You can edit, replace or remove any tab part or add personal notes – all changes will be seen only by you.

Personal tabs can be accessed anytime from any device, even offline.
Learn more »
Give kudos to tab author, rate the tab!
1 2 3 4 5
comments
print report bad tab
guest
You may want to rate the tab now too:
select rating
Wanna post a correction for this tab? Suggest correction