Oops, an error
Loading. Please wait.

Superbowl Sunday Bass Tab

256 views 1 this week
no commentswrite comment
1 2 3 4 5
excellent!
x 1
add to favorites
launch autoscroll
font size
0
reset
guitar tuner
Tab Pro tools
  • play this tab
  • loop segment
  • change instrument
  • show fretboard
  • metronome
Autoscroll
slow
fast
+/-
esc
set tempo
stop
Contributor
------------------------------------------------------------------------------- 
                     SUPERBOWL SUNDAY - Wunder Years
------------------------------------------------------------------------------- 

Tabbed by: $$ T-Money $$ (skankintrevor@msn.com) 

Intro: 
G----------------8---|-----------8---|-------------- 
D---------8----------|---10--8-------|----10--8--6-- 
A---6-6----6-6-------|---------------|-------------- 
E--------------------|---------------|-------------- 

She's got a magnet in her eye..... 
G--------------------------------------------------- 
D-----------------------------------8--------------- 
A--6-6-----------------6-6-------6----6-----8------- 
E-------6-6-4-4-6-6---------6-6----------6-----6---- 

She's got hope on her shoulders... 
G--------------------------------------------------- 
D--------------------------------------------------- 
A--6-6---------------6-6-------6-------------------- 
E-------6-6-4-4-6-6------6-6------6----------------- 

Chorus 
G------------------------------------|-------------- 
D------8-----------------------------|-------------- 
A--6------6---8------10-------6------|--6>---------- 
E-----------6---6--8----8--4-----4---|-----6>-8>-4>- 

After Chorus 
G--------------------------------------------------- 
D--------------------------------------------------- 
A---6--------6---------6--------------10---8----6--- 
E--------------------------------------------------- 

Verse: 
G------------------------|-------------------------- 
D------------------------|------8------------------- 
A---6-6------------------|---6----6-----8----------- 
E--------6-6-4-4-6-6-----|-----------6------6------- 

::shes's got a magne..... she's got hope on....:: 

::Chorus:: 

Bridge: 
G--------------------------------------------------- 
D-----8-6-5-6-8-6-5------8-10-13-13-13-(slide)------ 
A--6-----------------6------------------------------ 
E--------------------------------------------------- 

Bridge Cont...: 
G--------------------------------------------------- 
D----8>10-6-5-6-8-6-5----8-8-6-6-5-5---------------- 
A--6------------------6--------------8-8-6-6-5------ 
E--------------------------------------------------- 

Bridge Cont...: 
G----------------------------------|---------------- 
D----------------------------------|--------8------- 
A--6-6-----------------------------|---------------- 
E---------6-6-6-6-4-4---4-4-4-4----|--6-6----------- 

::Intro:: 

During Solo 
G--------------------------------------------------- 
D----------------------------------10-10-10-6------- 
A--6-6---------------6-6---------------------------- 
E-------6-6-4-4-6-6-------6-6----------------------- 

Solo Cont... 
G---------------------------------------------------- 
D----------------------------------------8----------- 
A---6-6------------------6-6-------6-----------8----- 
E--------6-6-4-4-6-6---------6-6---------6----------- 

::shes's got a magne..... she's got hope on....:: 

The Thing That He Plays During The Silence 
G-----8-- 
D--8----- 
A-------- 
E-------- 

::chorus:: 

Questions Or Comments??? (skankintrevor@msn.com) 
-------------------------------------------------------------------------------
comments
We did not receive enough feedback on this tab! Please rate:
print report bad tab
1 2 3 4 5
I want to post or [tab]
guest
You may want to rate the tab now too:
select rating
Please do not post tabs as comments. Select "correction" instead!