Oops, an error
Loading. Please wait.

Nikki Cross Theme - Believe Bass Tab

by WWE
16 views 3 this week
no commentswrite comment
1 2 3 4 5
3 more votes to show rating
add to favorites
launch autoscroll
font size
0
reset
guitar tuner
Autoscroll
slow
fast
+/-
esc
set tempo
stop
Help us to improve Ultimate-Guitar.com Take our survey!
×
Author
Difficulty
novice
About this tab version
Based of this Video: https://www.youtube.com/watch?v=KD69xgC_MGQ (the uploader looped the theme, the actual song ends around the 1.37 minute mark, which is what is shown in the tab). Was this info helpful? Yes No
                             NIKKI CROSS THEME - "BELIEVE"

Tabbed by: Rottney (reconssuck)
E-mail: reconssuck@hotmail.de





[Intro]

G|----------|----------|----------|--------------|-----------|----------|-----------------|--------------|
D|----------|----------|----------|--------------|-----------|----------|-----------------|--------------|
A|-5-5-5----|----------|----------|--------------|-5--5-5----|----------|-----------------|--------------|
E|----------|-5-5-5----|-7-7-7----|-3---3--3--5--|-----------|-5-5-5----|-3-3-3-3-3-3-3-3-|-3-3-3-3-3-5--|


[Verse] x4

G|-------------------------------|--------------------------------|
D|-------------------------------|--------------------------------|
A|-5-5-5-5-5-5-5-5-5-5-5-5-5-5-5-|--------------------------------|
E|-------------------------------|-3-3-3-3-3-3-3-3-3-3-3-3-3-3-3--|


[Pre-Chorus]

G|-----------------|-----------------|-----------------|------------------|
D|-----------------|-----------------|-----------------|------------------|
A|-----------------|-----------------|-----------------|------------------|
E|-0-0-0-0-0-0-0-0-|-2-2-2-2-2-2-2-2-|-3-3-3-3-3-3-3-3-|-5-5-5-5-5-5-5-5--|

[Intro]

G|----------|----------|----------|--------------|-----------|----------|-----------------|--------------|
D|----------|----------|----------|--------------|-----------|----------|-----------------|--------------|
A|-5-5-5----|----------|----------|--------------|-5--5-5----|----------|-----------------|--------------|
E|----------|-5-5-5----|-7-7-7----|-3---3--3--5--|-----------|-5-5-5----|-3-3-3-3-3-3-3-3-|-3-3-3-3-3-5--|

[Verse] x4

G|-------------------------------|--------------------------------|
D|-------------------------------|--------------------------------|
A|-5-5-5-5-5-5-5-5-5-5-5-5-5-5-5-|--------------------------------|
E|-------------------------------|-3-3-3-3-3-3-3-3-3-3-3-3-3-3-3--|

[Pre-Chorus]

G|-----------------|-----------------|-----------------|------------------|
D|-----------------|-----------------|-----------------|------------------|
A|-----------------|-----------------|-----------------|------------------|
E|-0-0-0-0-0-0-0-0-|-2-2-2-2-2-2-2-2-|-3-3-3-3-3-3-3-3-|-5-5-5-5-5-5-5-5--|

[Outro]

G|----------|----------|----------|--------------|-----------|----------|----------|---------------|
D|----------|----------|----------|--------------|-----------|----------|----------|---------------|
A|-5-5-5----|----------|----------|--------------|-5--5-5----|----------|----------|-------------5-|
E|----------|-5-5-5----|-7-7-7----|-3---3--3--5--|-----------|-5-5-5----|-7-7-7----|-3-3-3-3-3-5---|


That's all.
Enjoy and Rate.
Suggest correction
Give kudos to tab author, rate the tab!
1 2 3 4 5
comments
print report bad tab
guest
You may want to rate the tab now too:
select rating
Wanna post a correction for this tab? Suggest correction