Oops, an error
Loading. Please wait.

Oney Lorcan Theme - Combative Bass Tab

by WWE
10 views 1 this week
no commentswrite comment
1 2 3 4 5
3 more votes to show rating
add to favorites
launch autoscroll
font size
0
reset
guitar tuner
Autoscroll
slow
fast
+/-
esc
set tempo
stop
Help us to improve Ultimate-Guitar.com Take our survey!
×
Author
Difficulty
novice
                             ONEY LORCAN THEME "COMBATIVE"

Tabbed by: Rottney (reconssuck)
E-mail: reconssuck@hotmail.de

Artist: CF0$
Song: "Combative" (Oney Lorcan's 2nd Theme)



Tuning: Standard (EADG)




[Intro] (Bass only)

G|----------------------------------------------------------------------------------------------|
D|-5--4--2--0---------------------------5--4--2--0---------------------------5--4--2--0---------|
A|-------------7-7-7-7-7-7-7-7-7-7-7-7--------------2-2-2-2-2-2-2-2-2-2-2-2-------------------5-|
E|---------------------------------------------------------------------------------------3------|



[Verse] (not sure if the fill on the d string is played by the bass in the verse,
         alternatively just play the root notes)

G|--------------------------------------------------------------------------------------------------------|
D|------------------5--4--2--0-------------------5--4--2--0-----------------------------------------------|
A|-7-7-7-7-7-7-7-7--------------2-2-2-2-2-2-2-2--------------------------5-5-5-5-5--7-7-7-7-7-7-7-7-7-7-7-|
E|------------------------------------------------------------3-3-3-3-3-----------------------------------|

G|-----------------------------------------------------------------------------------|
D|------------------5--4--2--0---------------------5--4--2--0------------------------|
A|-7-7-7-7-7-7-7-7----------------2-2-2-2-2-2-2-2--------------------------5-5-5-5-5-|
E|--------------------------------------------------------------3-3-3-3-3------------|

(quick transition into following riff "Riff 2")

G|------------------------------------------------------------------|
D|------------------------------------------------------------------|
A|-2-2-2--5-5-5-5-5-5-5-5-5-5-5-5---2-2-2--5-5-5-5--8-8-8-8-8-8-8-8-|
E|------------------------------------------------------------------|


G|------------------------------------------------------------------------------|
D|------------------------------------------------------------------------------|
A|-2-2-2--5-5-5-5-5-5-5-5-5-5-5-5---2-2-2-2-2--5-5-5-5-5--8-8-8-8-8-8-8-8-8-8-8-|
E|------------------------------------------------------------------------------|
                                   (at this point the drums play faster and the bass too)


G|---------------------------------------------------------------|
D|-------------------------------------------------[5--4--2--0]--|
A|-2-2-2-2-2--5-5-5-5-5-5-5-5-5-5-5-5-------5--------------------|
E|--------------------------------------3------------------------|

(lead guitar kicks in play with faster rhythm)            [fill played by guitar only, play at will]



Then repeat Verse and "Riff 2" 4 times till last verse:


[Last verse]

G|----------------------------------------------------------------------------------------------------------|
D|------------------5--4--2--0---------------------5--4--2--0-----------------------------------------------|
A|-7-7-7-7-7-7-7-7----------------2-2-2-2-2-2-2-2--------------------------5-5-5-5-5--7-7-7-7-7-7-7-7-7-7-7-|
E|--------------------------------------------------------------3-3-3-3-3-----------------------------------|
                                                                                     (play fast rhythm here
                                                                                      when fast drums kick in)



That's all.
Enjoy and Rate please.

Suggest correction
Give kudos to tab author, rate the tab!
1 2 3 4 5
comments
print report bad tab
guest
You may want to rate the tab now too:
select rating
Wanna post a correction for this tab? Suggest correction