Oops, an error
Loading. Please wait.

Shinsuke Nakamura - The Rising Sun Bass Tab

by WWE
853 views 108 this week
no commentswrite comment
1 2 3 4 5
3 more votes to show rating
add to favorites
launch autoscroll
font size
0
reset
guitar tuner
Autoscroll
slow
fast
+/-
esc
set tempo
stop
Help us to improve Ultimate-Guitar.com Take our survey!
×
Author
Difficulty
Tuning
novice
D A D G B E
WWE - Shinsuke Nakamura - The Rising Sun

Tabbed by StanCranford

Tuning: DADG


String Intro (Tabbed for Bass)

G|----------------------------------------------|
D|-----------------9--------------12-10-9-------|
A|-12--12--12--10-----12--12--10----------------|
D|----------------------------------------7\----|


Rest

G|------------------------------------------------------|
D|------------------------------------------------------|
A|------------------------------------------------------|
D|-3--3--3--3--3--3--3--3--0--0--0--0--2--2--5-5-5-5----|

Rest

Main riff x2

G|----------------------------------------------------|
D|----------------------------------------------------|
A|----------------------------------------------------|
D|-7---7--3---3---0--0---0---0--2---2--3---3--6-6-6-6-|

Bridge
                                                      x2
G|-------------------------------------------------|
D|-------------------------------------------------|
A|-------------------------------------------------|
D|-3--3--3--3--3--3--3--3--0--0--0--0--2--2--5--5--|

G|------------------------------------------------------|
D|------------------------------------------------------|
A|------------------------------------------------------|
D|-3--3--3--3--3--3--3--3--0--0--0--0--2--2--5-5-5-5----|

Rest

Main riff x2

G|----------------------------------------------------|
D|----------------------------------------------------|
A|----------------------------------------------------|
D|-7---7--3---3---0--0---0---0--2---2--3---3--6-6-6-6-|

Bridge
                                                      x2
G|-------------------------------------------------|
D|-------------------------------------------------|
A|-------------------------------------------------|
D|-3--3--3--3--3--3--3--3--0--0--0--0--2--2--5--5--|

G|---------------------------------------------------|
D|---------------------------------------------------|
A|---------------------------------------------------|
D|-3--3--3--3--3--3--3--3--0--0--0--0--2--2--5-5-5-5-|

Main riff x2

G|----------------------------------------------------|
D|----------------------------------------------------|
A|----------------------------------------------------|
D|-7---7--3---3---0--0---0---0--2---2--3---3--6-6-6-6-|

Bridge
                                                      x2
G|-------------------------------------------------|
D|-------------------------------------------------|
A|-------------------------------------------------|
D|-3--3--3--3--3--3--3--3--0--0--0--0--2--2--5--5--|

G|------------------------------------------------------|
D|------------------------------------------------------|
A|------------------------------------------------------|
D|-3--3--3--3--3--3--3--3--0--0--0--0--2--2--5-5-5-5----|

Rest

Main riff x2

G|----------------------------------------------------|
D|----------------------------------------------------|
A|----------------------------------------------------|
D|-7---7--3---3---0--0---0---0--2---2--3---3--6-6-6-6-|

Bridge
                                                      x2
G|-------------------------------------------------|
D|-------------------------------------------------|
A|-------------------------------------------------|
D|-3--3--3--3--3--3--3--3--0--0--0--0--2--2--5--5--|

G|------------------------------------------------------|
D|------------------------------------------------------|
A|------------------------------------------------------|
D|-3--3--3--3--3--3--3--3--0--0--0--0--2--2--5-5-5-5----|

************************************

| \   Slide down

************************************
Suggest correction
Give kudos to tab author, rate the tab!
1 2 3 4 5
comments
print report bad tab
guest
You may want to rate the tab now too:
select rating
Wanna post a correction for this tab? Suggest correction