Oops, an error
Loading. Please wait.

Take A Chance - Smackdown Live tab

by WWE
505 views 6 this week
no commentswrite comment
1 2 3 4 5
3 more votes to show rating
add to favorites
×
Save as Personal and add changes to this tab that will be seen only by you. Learn more ›
×
You can save this tab as Personal to edit and correct it or add notes. All changes will be seen only by you. Learn more »
launch autoscroll
font size
0
reset
how to read this tab
guitar tuner
edit
Autoscroll
slow
fast
+/-
esc
set tempo
stop
Drop C# (C#G#C#F#A#D#)

Intro
D#---------------------------------|
A#-8-8-8-8-8-8-8-8-8-8-8-8-8-8-8-8-|
F#-7-7-7-7-7-7-7-7-8-8-8-8-8-8-8-8-|  x6
C#---------------------------------|
G#---------------------------------|
C#---------------------------------|


Pre Chorus
D#-----------------------------------------------------------------|
A#-----------------------------------------------------------------|
F#-5-5-5-5-5-5-5-5-5-5-5-5-5-5-5-5---------------------------------|
C#-5-5-5-5-5-5-5-5-5-5-5-5-5-5-5-5-1-1-1-1-1-1-1-1-1-1-1-1-1-1-1-1-|
G#-3-3-3-3-3-3-3-3-3-3-3-3-3-3-3-3-1-1-1-1-1-1-1-1-1-1-1-1-1-1-1-1-|
C#---------------------------------1-1-1-1-1-1-1-1-1-1-1-1-1-1-1-1-|

D#---------------------------------------------------|
A#---------------------------------------------------|
F#---------------------------------------------------|
C#-5-5-5-5-5-5-5-5-5-5-5-5-5-5-5-5-3-3-3-3-3-3-3-3-3-|
G#-5-5-5-5-5-5-5-5-5-5-5-5-5-5-5-5-3-3-3-3-3-3-3-3-3-|
C#-5-5-5-5-5-5-5-5-5-5-5-5-5-5-5-5-3-3-3-3-3-3-3-3-3-|


Chorus
D#---------------------------------------------------------------|
A#---------------------------------------------------------------|
F#---------------------------------------------------------------|
C#-5-5-5-5-5-5-5-5-5-5-5-5-5-5-5-5-8-8-8-8-8-8-8-8-8-8-8-8-8-8-8-|
G#-5-5-5-5-5-5-5-5-5-5-5-5-5-5-5-5-8-8-8-8-8-8-8-8-8-8-8-8-8-8-8-|
C#-5-5-5-5-5-5-5-5-5-5-5-5-5-5-5-5-8-8-8-8-8-8-8-8-8-8-8-8-8-8-8-|

D#-----------------------------------------------------------------|
A#-----------------------------------------------------------------|
F#-----------------------------------------------------------------|
C#-3-3-3-3-3-3-3-3-3-3-3-3-3-3-3-3-1-1-1-1-1-1-1-1-0-0-0-0-0-0-0-0-|
G#-3-3-3-3-3-3-3-3-3-3-3-3-3-3-3-3-1-1-1-1-1-1-1-1-0-0-0-0-0-0-0-0-|
C#-3-3-3-3-3-3-3-3-3-3-3-3-3-3-3-3-1-1-1-1-1-1-1-1-0-0-0-0-0-0-0-0-|

D#---------------------------------------------------------------|
A#---------------------------------------------------------------|
F#---------------------------------------------------------------|
C#-5-5-5-5-5-5-5-5-5-5-5-5-5-5-5-5-8-8-8-8-8-8-8-8-8-8-8-8-8-8-8-|
G#-5-5-5-5-5-5-5-5-5-5-5-5-5-5-5-5-8-8-8-8-8-8-8-8-8-8-8-8-8-8-8-|
C#-5-5-5-5-5-5-5-5-5-5-5-5-5-5-5-5-8-8-8-8-8-8-8-8-8-8-8-8-8-8-8-|

D#---------------------------------|
A#---------------------------------|
F#---------------------------------|
C#-3-3-3-3-3-3-3-3-3-3-3-3-3-3-3-3-|
G#-3-3-3-3-3-3-3-3-3-3-3-3-3-3-3-3-|
C#-3-3-3-3-3-3-3-3-3-3-3-3-3-3-3-3-|

D#----------------------------------------------------|
A#----------------------------------------------------|
F#----------------------------------------------------|
C#-X--X-X-X--X--X-X-X--X--X-X-X--X--X-X-X--X-X--X-X-X-|
G#-X--X-X-X--X--X-X-X--X--X-X-X--X--X-X-X--X-X--X-X-X-|
C#-X--X-X-X--X--X-X-X--X--X-X-X--X--X-X-X--X-X--X-X-X-|


Verse
D#---------------------------------|
A#-8-8-8-8-8-8-8-8-8-8-8-8-8-8-8-8-|
F#-7-7-7-7-7-7-7-7-8-8-8-8-8-8-8-8-|  x6
C#---------------------------------|
G#---------------------------------|
C#---------------------------------|


Pre Chorus
D#-----------------------------------------------------------------|
A#-----------------------------------------------------------------|
F#-5-5-5-5-5-5-5-5-5-5-5-5-5-5-5-5---------------------------------|
C#-5-5-5-5-5-5-5-5-5-5-5-5-5-5-5-5-1-1-1-1-1-1-1-1-1-1-1-1-1-1-1-1-|
G#-3-3-3-3-3-3-3-3-3-3-3-3-3-3-3-3-1-1-1-1-1-1-1-1-1-1-1-1-1-1-1-1-|
C#---------------------------------1-1-1-1-1-1-1-1-1-1-1-1-1-1-1-1-|

D#---------------------------------------------------|
A#---------------------------------------------------|
F#---------------------------------------------------|
C#-5-5-5-5-5-5-5-5-5-5-5-5-5-5-5-5-3-3-3-3-3-3-3-3-3-|
G#-5-5-5-5-5-5-5-5-5-5-5-5-5-5-5-5-3-3-3-3-3-3-3-3-3-|
C#-5-5-5-5-5-5-5-5-5-5-5-5-5-5-5-5-3-3-3-3-3-3-3-3-3-|


Chorus
D#---------------------------------------------------------------|
A#---------------------------------------------------------------|
F#---------------------------------------------------------------|
C#-5-5-5-5-5-5-5-5-5-5-5-5-5-5-5-5-8-8-8-8-8-8-8-8-8-8-8-8-8-8-8-|
G#-5-5-5-5-5-5-5-5-5-5-5-5-5-5-5-5-8-8-8-8-8-8-8-8-8-8-8-8-8-8-8-|
C#-5-5-5-5-5-5-5-5-5-5-5-5-5-5-5-5-8-8-8-8-8-8-8-8-8-8-8-8-8-8-8-|

D#-----------------------------------------------------------------|
A#-----------------------------------------------------------------|
F#-----------------------------------------------------------------|
C#-3-3-3-3-3-3-3-3-3-3-3-3-3-3-3-3-1-1-1-1-1-1-1-1-0-0-0-0-0-0-0-0-|
G#-3-3-3-3-3-3-3-3-3-3-3-3-3-3-3-3-1-1-1-1-1-1-1-1-0-0-0-0-0-0-0-0-|
C#-3-3-3-3-3-3-3-3-3-3-3-3-3-3-3-3-1-1-1-1-1-1-1-1-0-0-0-0-0-0-0-0-|

D#---------------------------------------------------------------|
A#---------------------------------------------------------------|
F#---------------------------------------------------------------|
C#-5-5-5-5-5-5-5-5-5-5-5-5-5-5-5-5-8-8-8-8-8-8-8-8-8-8-8-8-8-8-8-|
G#-5-5-5-5-5-5-5-5-5-5-5-5-5-5-5-5-8-8-8-8-8-8-8-8-8-8-8-8-8-8-8-|
C#-5-5-5-5-5-5-5-5-5-5-5-5-5-5-5-5-8-8-8-8-8-8-8-8-8-8-8-8-8-8-8-|

D#---------------------------------|
A#---------------------------------|
F#---------------------------------|
C#-3-3-3-3-3-3-3-3-3-3-3-3-3-3-3-3-|
G#-3-3-3-3-3-3-3-3-3-3-3-3-3-3-3-3-|
C#-3-3-3-3-3-3-3-3-3-3-3-3-3-3-3-3-|

D#--------------------------------------------------------|
A#--------------------------------------------------------|
F#----------------------------------------------------5---|
C#-X--X-X-X--X--X-X-X--X--X-X-X--X--X-X-X--X-X--X-X-X-5---|
G#-X--X-X-X--X--X-X-X--X--X-X-X--X--X-X-X--X-X--X-X-X-3---|
C#-X--X-X-X--X--X-X-X--X--X-X-X--X--X-X-X--X-X--X-X-X-----|

Bridge (no guitar)

Chorus
D#---------------------------------------------------------------|
A#---------------------------------------------------------------|
F#---------------------------------------------------------------|
C#-5-5-5-5-5-5-5-5-5-5-5-5-5-5-5-5-8-8-8-8-8-8-8-8-8-8-8-8-8-8-8-|
G#-5-5-5-5-5-5-5-5-5-5-5-5-5-5-5-5-8-8-8-8-8-8-8-8-8-8-8-8-8-8-8-|
C#-5-5-5-5-5-5-5-5-5-5-5-5-5-5-5-5-8-8-8-8-8-8-8-8-8-8-8-8-8-8-8-|

D#-----------------------------------------------------------------|
A#-----------------------------------------------------------------|
F#-----------------------------------------------------------------|
C#-3-3-3-3-3-3-3-3-3-3-3-3-3-3-3-3-1-1-1-1-1-1-1-1-0-0-0-0-0-0-0-0-|
G#-3-3-3-3-3-3-3-3-3-3-3-3-3-3-3-3-1-1-1-1-1-1-1-1-0-0-0-0-0-0-0-0-|
C#-3-3-3-3-3-3-3-3-3-3-3-3-3-3-3-3-1-1-1-1-1-1-1-1-0-0-0-0-0-0-0-0-|

D#---------------------------------------------------------------|
A#---------------------------------------------------------------|
F#---------------------------------------------------------------|
C#-5-5-5-5-5-5-5-5-5-5-5-5-5-5-5-5-8-8-8-8-8-8-8-8-8-8-8-8-8-8-8-|
G#-5-5-5-5-5-5-5-5-5-5-5-5-5-5-5-5-8-8-8-8-8-8-8-8-8-8-8-8-8-8-8-|
C#-5-5-5-5-5-5-5-5-5-5-5-5-5-5-5-5-8-8-8-8-8-8-8-8-8-8-8-8-8-8-8-|

D#-----------------------------------------------------------------|
A#-----------------------------------------------------------------|
F#-----------------------------------------------------------------|
C#-3-3-3-3-3-3-3-3-3-3-3-3-3-3-3-3-1-1-1-1-1-1-1-1-0-0-0-0-0-0-0-0-|
G#-3-3-3-3-3-3-3-3-3-3-3-3-3-3-3-3-1-1-1-1-1-1-1-1-0-0-0-0-0-0-0-0-|
C#-3-3-3-3-3-3-3-3-3-3-3-3-3-3-3-3-1-1-1-1-1-1-1-1-0-0-0-0-0-0-0-0-|

D#---------------------------------------------------------------|
A#---------------------------------------------------------------|
F#---------------------------------------------------------------|
C#-5-5-5-5-5-5-5-5-5-5-5-5-5-5-5-5-8-8-8-8-8-8-8-8-8-8-8-8-8-8-8-|
G#-5-5-5-5-5-5-5-5-5-5-5-5-5-5-5-5-8-8-8-8-8-8-8-8-8-8-8-8-8-8-8-|
C#-5-5-5-5-5-5-5-5-5-5-5-5-5-5-5-5-8-8-8-8-8-8-8-8-8-8-8-8-8-8-8-|

D#---------------------------------|
A#---------------------------------|
F#---------------------------------|
C#-3-3-3-3-3-3-3-3-3-3-3-3-3-3-3-3-|
G#-3-3-3-3-3-3-3-3-3-3-3-3-3-3-3-3-|
C#-3-3-3-3-3-3-3-3-3-3-3-3-3-3-3-3-|

D#----------------------------------------------------|
A#----------------------------------------------------|
F#----------------------------------------------------|
C#-X--X-X-X--X--X-X-X--X--X-X-X--X--X-X-X--X-X--X-X-X-|
G#-X--X-X-X--X--X-X-X--X--X-X-X--X--X-X-X--X-X--X-X-X-|
C#-X--X-X-X--X--X-X-X--X--X-X-X--X--X-X-X--X-X--X-X-X-|


Outro
D#----------------------------------------------------------------------|
A#----------------------------------------------------------------------|
F#----------------------------------------------------------------------|
C#-5-5-5-5-5-5-5-5-1-1-1-1-1-1-1-1-5-5-5-5-5-5-5-5-1-1-1-1-1-1-1-1-5----|
G#-5-5-5-5-5-5-5-5-1-1-1-1-1-1-1-1-5-5-5-5-5-5-5-5-1-1-1-1-1-1-1-1-5----|
C#-5-5-5-5-5-5-5-5-1-1-1-1-1-1-1-1-5-5-5-5-5-5-5-5-1-1-1-1-1-1-1-1-5----|
Suggest correction
Creating personal tab
Creating personal tab
You can edit any tab online and save it as your Personal.

You can edit, replace or remove any tab part or add personal notes – all changes will be seen only by you.

Personal tabs can be accessed anytime from any device, even offline.
Learn more »
Give kudos to tab author, rate the tab!
1 2 3 4 5
comments
print report bad tab
guest
You may want to rate the tab now too:
select rating
Wanna post a correction for this tab? Suggest correction