Oops, an error
Loading. Please wait.

Worlds Apart Sami Zayn Tab

1,036 views 48 this week
1 commentread comment
1 2 3 4 5
1 last vote to show rating
add to favorites
launch autoscroll
font size
0
reset
how to read this tab
guitar tuner
×
Best way to learn
"Worlds Apart Sami Zayn"
Autoscroll
slow
fast
+/-
esc
set tempo
stop
Author
Difficulty
Tuning
  follow
novice
D A D G B E
About this tab version
It includes the guitar line heard in the official song, as well as my attempt at the melodies played by other instruments. Was this info helpful? Yes No
WWE (CFO$) - Worlds Apart (Sami Zayn)


Guitar 1 is the electric guitar heard in the official song. Full chords are listed above each bar.
Guitar 2 is my attempt at the main melody played during the verse and chorus

[Intro] [0:00]

Guitar 1
e|--------------------------------------|--------------------------------------|
B|--------------------------------------|--------------------------------------|
G|----------7-9\\\\----/9--7-9-7-9-7----|----------7-9\\\\----/9--7-9-7-9-7----|
D|--5--7-9---------------------------\5-|--5--7-9---------------------------\5-|
A|--------------------------------------|--------------------------------------|
E|--------------------------------------|--------------------------------------|

LET'S GO!

[Verse] [0:11]

Guitar 1
    Em                G                 C                 Am
e|------------------|-----------------|-----------------|-------------------|
B|------------------|-----------------|-----------------|-------------------|
G|------------------|-----------------|-----------------|-------------------|
D|------------------|-----------------|-5-5-5-5-5-5-5-5-|-2-2-2-2-2-2-2-2---|
A|--2-2-2-2-2-2-2-2-|-5-5-5-5-5-5-5-5-|-3-3-3-3-3-3-3-3-|-0-0-0-0-0-0-0-0---|
E|--2-2-2-2-2-2-2-2-|-5-5-5-5-5-5-5-5-|-----------------|-------------------|
  PM|-------------|   |--------------|  |-------------|   |-------------|

    Em                G                 C                 C
e|------------------|-----------------|-----------------|-------------------|
B|------------------|-----------------|-----------------|-------------------|
G|------------------|-----------------|-----------------|-------------------|
D|------------------|-----------------|-5-5-5-5-5-5-5-5-|-5~----------------|
A|--2-2-2-2-2-2-2-2-|-5-5-5-5-5-5-5-5-|-3-3-3-3-3-3-3-3-|-3~----------------|
E|--2-2-2-2-2-2-2-2-|-5-5-5-5-5-5-5-5-|-----------------|-------------------|
  PM|-------------|   |--------------|  |-------------|

Guitar 2
e|---------|-----------|----------|-----------------|
B|--8-8--8-|-7-7--7-7--|----------|-----------------|
G|---------|-----------|--7--7--7-|-9-9--9--7-9-7---|
D|---------|-----------|----------|---------------9-|
A|---------|-----------|----------|-----------------|
E|---------|-----------|----------|-----------------|

e|---------|-----------|----------|---------------7------|
B|--8-8--8-|-7-7--7-7--|--8--8--8-|-10-10--10--10---10-8-|
G|---------|-----------|----------|----------------------|
D|---------|-----------|----------|----------------------|
A|---------|-----------|----------|----------------------|
E|---------|-----------|----------|----------------------|


[Chorus] [0:21]

Guitar 1
  G                                  D
e|---------------------------------|---------------------------------|
B|---------------------------------|---------------------------------|
G|---------------------------------|---------------------------------|
D|---------------------------------|---------------------------------|
A|-5-5-5-5-5-5-5-5-5-5-5-5-5-5-5-5-|-0-0-0-0-0-0-0-0-0-0-0-0-0-0-0-0-|
E|-5-5-5-5-5-5-5-5-5-5-5-5-5-5-5-5-|-0-0-0-0-0-0-0-0-0-0-0-0-0-0-0-0-|

   C                                 Em                D
e|---------------------------------|-----------------|-----------------|
B|---------------------------------|-----------------|-----------------|
G|---------------------------------|-----------------|-----------------|
D|-5-5-5-5-5-5-5-5-5-5-5-5-5-5-5-5-|-----------------|-7-7-7-7-7-7-7-7-|
A|-3-3-3-3-3-3-3-3-3-3-3-3-3-3-3-3-|-2-2-2-2-2-2-2-2-|-5-5-5-5-5-5-5-5-|
E|---------------------------------|-2-2-2-2-2-2-2-2-|-----------------| x2


Guitar 2
   G            D               C             Em         D
e|------------|---------------|--------------|--------------------|
B|------------|---------------|--------------|--------------------|
G|--------12--|-11~---7--7~~--|-9-7-7--------|-9-7--7-------------|
D|-5---9------|---------------|--------9-5~--|---------9-7--9-7-5-|
A|------------|---------------|--------------|--------------------|
E|------------|---------------|--------------|--------------------| x2


Order:
Intro
Verse
Chorus
Brass interlude
Verse
Chorus
Intro
Verse
Chorus

Then the whole thing starts again

************************************

| /   Slide up
| \   Slide down
| ~   Vibrato
| PM  Palm mute

************************************
Suggest correction
Give kudos to tab author, rate the tab!
1 2 3 4 5
comments
print report bad tab
1 comment total.
0 reply
mcaranto5150 10 Nov 12, 2016 11:36 PM

where is the rest of it?

guest
You may want to rate the tab now too:
select rating
Wanna post a correction for this tab? Suggest correction