Oops, an error
Loading. Please wait.

Fast Car tab

version 2
version 2

Whole song

14,217 views 9 this week
1 commentread comment
1 2 3 4 5
x 5
add to favorites
×
Save as Personal and add changes to this tab that will be seen only by you. Learn more ›
×
You can save this tab as Personal to edit and correct it or add notes. All changes will be seen only by you. Learn more »
launch autoscroll
font size
0
reset
how to read this tab
guitar tuner
edit
Autoscroll
slow
fast
+/-
esc
set tempo
stop
Author
Difficulty
-------------------------------------------------------------------------------
                             Fast Car - Wyclef Jean (feat. Paul Simon)
-------------------------------------------------------------------------------
Tabbed by: muymoo
Email: muymoo@hotmail.com

Tuning:Standard

Intro

e|-------------------------------------------------------------------------------|
B|----0----------0---------0----------0--------0---------0-------0---------0-----|
G|---0-0-0-0----0-0-0-----0-0-0-0----0-0-0----0-0-0-0---0-0-0---0-0-0-0---0-0-0--|
D|--2----------2---------2----------2--------0---------0-------0---------0-------|
A|-------------------------------------------------------------------------------|
E|-------------------------------------------------------------------------------|

Verse

e|-------------------------------------------------------------------------------|
B|----0----------0---------0----------0--------0---------0-------0---------0-----|
G|---0-0-0-0----0-0-0-----0-0-0-0----0-0-0----0-0-0-0---0-0-0---0-0-0-0---0-0-0--|
D|--2----------2---------2----------2--------2---------2-------2---------2-------|
A|-------------------------------------------------------------------------------|
E|-------------------------------------------------------------------------------|

e|--------------------------------------|
B|----0---------0-------0---------0-----|
G|---0-0-0-0---0-0-0---0-0-0-0---0-0-0--|
D|--0---------0-------0---------0-------|
A|--------------------------------------|
E|--------------------------------------| repeat.

Refrain

C                        Em
You gotta be no billionaire
                           C
To get a ticket up to the moon
                          Em
We all know somebody up there

You need a helping hand
                   C
Look, come right here
                            Em
To help you see clearly now, yeah
                            C
To help you see clearly now, yeah
                           C Em Am
I hope you see clearly now, yeah



Please leave comments so I can fix as necessary.

Enjoy!

muymoo
===============================================================================
Suggest correction
Creating personal tab
Creating personal tab
You can edit any tab online and save it as your Personal.

You can edit, replace or remove any tab part or add personal notes – all changes will be seen only by you.

Personal tabs can be accessed anytime from any device, even offline.
Learn more »
comments
print report bad tab
1 comment total.
0 reply
dpainn 10 Apr 30, 2011 10:31 AM

its awesome but can plz u give some strummin techniques for this one.....

guest
You may want to rate the tab now too:
select rating
Wanna post a correction for this tab? Suggest correction