Oops, an error
Loading. Please wait.

For Prayer Tab

8,714 views 3 this week
1 commentread comment
1 2 3 4 5
x 6
add to favorites
launch autoscroll
font size
0
reset
how to read this tab
guitar tuner
Autoscroll
slow
fast
+/-
esc
set tempo
stop
Help us to improve Ultimate-Guitar.com Take our survey!
×
Author
Difficulty
Tuning
intermediate
D A D G B E
For Prayer by Wye Oak (www.wyeoakmusic.com)
Tuning: Drop D
Bend: ~
Slide up: /
Dampen: x

Don’t dampen the strings during the verses of the song, except for where marked. The 
ring out, but slight changes on one or two strings occur. Have fun! =]


Verse(s)
e ---------x-----------------0-----------0-0-0---0-0-------------|
B ---------x---1-------------0-----------0-0-0---0-1-------1-----|
G ---------x---2-0-----------0-0---0-2---2-2-0---0-0-------0-2-0-|
D ---------x-2---0---------2---2---3-----3-3-3---3-2---0-2-------|
A -0---0---x---------------2---2---3-----3-3-3---3-3---3---------|
E ---------x-------2---2-----------3-----------------------------|

   1   2   3   4   1   2   3   4   1   2   3   4   1   2   3   4

e ---------x-----------------0-----------0-0-0---0-0-----0-0-----|
B ---------x---1-------------0-----------0-0-0---0-1-----1-1-----|
G ---------x---2-0-----------0-0---0-2---2-2-0---0-0-2---2-0-2-0-|
D ---------x-2---0---------2---2---3-----3-3-3---3-0-2---2-2-----|
A -0---0---x---------------2---2---3-----3-3-3---3-0-----0-------|
E ---------x-------2---2-----------3-----------------------------|

   1   2   3   4   1   2   3   4   1   2   3   4   1   2   3   4

e ---------x-----------------0-----------0-0-0---0-0-------------|
B ---------x---1-------------0-----------0-0-0---0-1-------1-----|
G ---------x---2-0-----------0-0---0-2---2-2-0---0-0-------0-2-0-|
D ---------x-2---0---------2---2---3-----3-3-3---3-2---0-2-------|
A -0---0---x---------------2---2---3-----3-3-3---3-3---3---------|
E ---------x-------2---2-----------3-----------------------------|

   1   2   3   4   1   2   3   4   1   2   3   4   1   2   3   4

e ---------x-----------------0-----------0-0-0---0-0-------------|
B ---------x---1-------------0-----------0-0-0---0-1-------------|
G ---------x---2-0-----------0-0---0-2---2-2-0---0-0-2-----------|
D ---------x-2---0---------2---2---3-----3-3-3---3-0-2-----------|
A -0---0---x---------------2---2---3-----3-3-3---3-0-------------|
E ---------x-------2---2-----------3-----------------------------|

   1   2   3   4   1   2   3   4   1   2   3   4   1   2   3   4

e ---------x-----------------0-----------0-0-0---0-0-------------|
B ---------x---1-------------0-----------0-0-0---0-1-------1-----|
G ---------x---2-0-----------0-0---0-2---2-2-0---0-0-------0-2-0-|
D ---------x-2---0---------2---2---3-----3-3-3---3-2---0-2-------|
A -0---0---x---------------2---2---3-----3-3-3---3-3---3---------|
E ---------x-------2---2-----------3-----------------------------|

   1   2   3   4   1   2   3   4   1   2   3   4   1   2   3   4

e ---------x-----------------0-----------0-0-0---0-0-----0-0-----|
B ---------x---1-------------0-----------0-0-0---0-1-----1-1-----|
G ---------x---2-0-----------0-0---0-2---2-2-0---0-0-2---2-0-2-0-|
D ---------x-2---0---------2---2---3-----3-3-3---3-0-2---2-2-----|
A -0---0---x---------------2---2---3-----3-3-3---3-0-----0-------|
E ---------x-------2---2-----------3-----------------------------|

   1   2   3   4   1   2   3   4   1   2   3   4   1   2   3   4

e ---------x-----------------0-----------0-0-0---0-0-------------|
B ---------x---1-------------0-----------0-0-0---0-1-------1-----|
G ---------x---2-0-----------0-0---0-2---2-2-0---0-0-------0-2-0-|
D ---------x-2---0---------2---2---3-----3-3-3---3-2---0-2-------|
A -0---0---x---------------2---2---3-----3-3-3---3-3---3---------|
E ---------x-------2---2-----------3-----------------------------|

   1   2   3   4   1   2   3   4   1   2   3   4   1   2   3   4

e ---------x-----------------0-----------0-0-0---0-0-------0-----|
B ---------x---1-------------0-----------0-0-0---0-1-------1-----|
G ---------x---2-0-----------0-0---0-2---2-2-0---0-2~------2~----|
D ---------x-2---0---------2---2---3-----3-3-3---3-2~------2~----|
A -0---0---x---------------2---2---3-----3-3-3---3-0-------0-----|
E ---------x-------2---2-----------3-----------------------------|

   1   2   3   4   1   2   3   4   1   2   3   4   1   2   3   4

e -0-------0-------0---0-0-0-----------------------|
B -1-------1-------0---0-0-0-----------------------|
G -2~------2~------5---5-5-5/7-7-7-7/9-9-9-9-9-7-5-|
D -2~------2~------5---5-5-5-----------------------|
A -0-------0-------3---3-3-3/5-5-5-5/7-7-7-7-7-5-3-|
E -------------------------------------------------|

   1   2   3   4   1   2   3   4   1   2   3   4

Chorus(s)
The rhythm is pretty simple for the chorus(s). So, here are the chords.

e -0-----------0-----------0-----------0----------|
B -1-----------0-----------0-----------1----------|
G -2-----------0-----------2-----------0----------|
D -2-----------2-----------3-----------2----------|
A -0-----------2-----------3-----------3----------|
E -------------2-----------3----------------------|

   Am          Em        Fmaj7-5      Cmaj

The second verse ends a little differently than the first when transitioning into the 
but it is the same chord and isn’t hard to figure it out.
Suggest correction
comments
print report bad tab
1 comment total.
0 reply
jamesutah 31 Nov 12, 2013 10:52 AM

Hey there, GREAT tab! i was wondering if you could possibly tab Take It In too? i love that song and just can't for the life of me figure it out..

guest
You may want to rate the tab now too:
select rating
Wanna post a correction for this tab? Suggest correction