Oops, an error
Loading. Please wait.

Ugly Girl Blues chords

version 2
version 2

Whole song

25 views 6 this week
1 commentread comment
1 2 3 4 5
3 more votes to show rating
add to favorites
×
Save as Personal and add changes to this tab that will be seen only by you. Learn more ›
×
You can save this tab as Personal to edit and correct it or add notes. All changes will be seen only by you. Learn more »
launch autoscroll
font size
0
reset
transpose
0
reset
simplify chords
display chords
guitar tuner
edit
Autoscroll
slow
fast
+/-
esc
set tempo
stop
Author
Difficulty
Strumming
There is no strumming pattern for this song yet. and get +5 IQ
[INTRO]
       E          C#         F#            B7               E
e|-------0-------------|---------2--------------|--------0----0----0-------|-------|
B|-------------------2-|----------------------0-|-------0----0---0---------|----0--|
G|-0-0h1-----------1---|--2-2/3---------------2-|-----4----3---2-----0h1---|----2--|
D|----------0--1/3-----|--------------------1---|--------------------------|----1--|
A|---------------------|------------4---1-2-----|--------------------------|0-1-2--|
E|---------------------|------------------------|-0------------------------|-------|

[VERSE 1]
E                                   E7
Went out last night in search of romance
           A                           A7
Thought I might get lucky so I took a chance
        E           C#
But now I'm feeling low
    F#               E    A   E  B7
An ugly girl told me no      (Take it Merle)


[VERSE 2]
E                     E7
Here I sit devastated
     A                    A7
My libido derailed and my ego deflated
   E           C#
Got nowhere to go
F#            B7      E  E7
An ugly girl told me no


[BRIDGE]
     A
She shot me right down taught me a lesson
            E   
Hey when it comes to women you can't second guess 'em
 F#
Take my advice boys If you're looking for some fun
     B7  
The ugly one ain't always the easy one
Baug
No


[VERSE 3]
E                           E7
I paid the price, got no thrill
     A                                       A7
Went away feeling like a hound dog with a nose full of quills
E            C#
Oh oh what a blow
        F#          B7
Cuz an ugly girl told me
                       E
Posolutely, absotively no

[OUTRO]

e|--------0----0----0-------|-------|
B|-------0----0---0---------|-------|
G|-----4----3---2-----0h1---|-------|
D|--------------------------|-5/6---|
A|--------------------------|-2/3---|
E|--------------------------|-3/4---|

            
            
Suggest correction
Creating personal tab
Creating personal tab
You can edit any tab online and save it as your Personal.

You can edit, replace or remove any tab part or add personal notes – all changes will be seen only by you.

Personal tabs can be accessed anytime from any device, even offline.
Learn more »
Give kudos to tab author, rate the tab!
1 2 3 4 5
comments
print report bad tab
1 comment total.
0 reply
gary6754 10 Feb 18, 2017 11:25 PM

Thanks, I'll work on this also.

guest
You may want to rate the tab now too:
select rating
Wanna post a correction for this tab? Suggest correction