Oops, an error
Loading. Please wait.

Sad Song Of The Woods tab

version 1
version 1

Whole song

by Wyrd
119 views 6 this week
no commentswrite comment
1 2 3 4 5
3 more votes to show rating
add to favorites
×
Save as Personal and add changes to this tab that will be seen only by you. Learn more ›
×
You can save this tab as Personal to edit and correct it or add notes. All changes will be seen only by you. Learn more »
launch autoscroll
font size
0
reset
how to read this tab
guitar tuner
edit
Autoscroll
slow
fast
+/-
esc
set tempo
stop
Author
-------------------------------------------------------------------------------
                             Sad Song Of The Woods - Wyrd
-------------------------------------------------------------------------------
Tabbed by: Jarkko Makkonen (Necrofiend)
E-mail: snarlyrapier145@gmail.com

Tuning: Standard / E A D G B e


Acoustic Guitar:

Riff 1   

0:36

e|---------------------------------------------------------------------------------------------------|
B|----------------------------------------------------------------------------------h-p----5---------| 
G|------------------------------------h-p---------5--------5--5----7--5--4--------4-5-4--------------|  
D|--5--------5--5----7--5--4--------4-5-4----2-------------------------------------------------------| \
A|---------------------------------------------------------------------------------------------------|  \
E|---------------------------------------------------------------------------------------------------|   \
                                                                                                           3x
e|---------------------------------------------------------------------------------------------------|   /
B|---------------------------------------------------------------------------------------------------|  /
G|---------------9--------9-9-9-7------------h-p---------------------9----7----------7---------------| /
D|-------------9------------------10-9----9-10-9-7----5----7----9--------------10--------------------|
A|--7--------7---------------------------------------------------------------------------------------|
E|---------------------------------------------------------------------------------------------------|


Riff 2

2:19

e|---------------------------------------------------------------------------| \
B|------------------------------------------------------------------0--------|  \
G|---------------------------------------------------------h-p---0-----0-----|   \
D|--------0--------0--------0-----4--------4-----5--4----2-4-2---------------|   /  10x
A|--2--2-----2--2-----2--2-----2-----2--2-----2------------------------------|  /
E|---------------------------------------------------------------------------| /


Riff 3

3:38

e|-----------------------------------|--------------------------------------------|
B|-----------------------------------|--------------------------------------------|
G|-------------------------h-p-------|--------------------------------------------|
D|--/9----7----4----5----4-5-4----2--|--/9----7----4----5----4----2---------------| \
A|-----------------------------------|--------------------------------------------|  \
E|-----------------------------------|--------------------------------------------|   \
                                                                                         2x
e|--------------------------------------------0-----------------------------------|   /
B|--------------------------------------0--------0-----0--------0------------0----|  /
G|-------------------------h-p-------0-----0--------0--------2------------0-------| /
D|--/9----7----4----5----4-5-4----2-----------------------3----------2------------|
A|--------------------------------------------------------------------------------|
E|--------------------------------------------------------------------------------|


Distortion Guitar:

Riff 4

4:12

e|-----------------------------------------------------------------------------------------------|
B|-----------------------------------------------------------------------------------------------|
G|------------------------------------------------------------------------------------------4----|
D|------------------------------------------------5---------5--5----7--5--4--------3/5\4----2----| \
A|--5--------5--5----7--5--4--------3/5\2----2----3---------3--3----5--3--2--------2/3\2---------|  \
E|--3--------3--3----5--3--2--------2/3\2----0---------------------------------------------------|   \
                                                                                                       2x
e|-----------------------------------------------------------------------------------------------|   /
B|-----------------------------------------------------------------------------------------------|  /
G|-------------4--------4-4-4-2------------------------------------------------------------------| /
D|-------------2--------2-2-2-0-5-4----4/5\4-2-------------------9----7---------7----------------|
A|--2--------2------------------3-2----2/3\2-0----5----7----9----7----5----10---5----------------|
E|--0------0--------------------------------------3----5----7--------------8---------------------|

(Keyboards play Riff 1 when Distortion Guitar plays Riff 4)


Riff 5

5:11

  1, 2, 3,____ 5, 6, 7,____      4____                    8____
e|-----5---------------------|------8----------7-7-7--|-----3------3-2-2-2---| \
B|------5--------------------|-------9---------8-8-8--|------4-----4-3-3-3---|  \
G|-------5-------------------|--10----10----10-9-9-9--|--5----5----5-4-4-4---|   \
D|--7-----7------7--2--3--6--|--10-----10---10-9-9-9--|--5-----5---5-4-4-4---|   / 2x
A|--7------7-----7--2--3--6--|--8--------8--8--7-7-7--|--3------3--3-2-2-2---|  /
E|--5-------5----5--0--1--4--|------------------------|----------------------| /


Riff 4  >  2x
Riff 5  >  2x

Riff 4  >  2x
Riff 5  >  2x

Riff 4  >  2x
Riff 5  >  2x

Riff 4  >  2x
Riff 5  >  2x

Riff 4  >  1x (End with G5)

Acoustic guitar:

Riff 2  >  10x


Distortion Guitar:

Riff 6

12:24

In this riff all chords are tremolo picked. Not sure if played an octave higher.
e|------------------------------------|-------------------------------------------| \
B|------------------------------------|-------------------------------------------|  \
G|------------------------------------|-------------------------------------------|   \
D|------------------------------------|-------------------------------------------|   / 2x
A|--3--------5----7----8---------7----|-----3--------5----7----8--------10---7----|  /
E|--5--------5----5----5---------5----|-----5--------5----5----5--------5----5----| /


Riff 7

12:52

e|----------------------------------|----------------------------------|
B|----------------------------------|----------------------------------|
G|----------------------------------|----------------------------------|
D|--9--9--9--9--7--7--7--7----4--5--|--9--9--9--9--7--7--7--7----4--5--| \
A|--9--9--9--9--7--7--7--7----4--5--|--9--9--9--9--7--7--7--7----4--5--|  \
E|--7--7--7--7--5--5--5--5----2--3--|--7--7--7--7--5--5--5--5----2--3--|   \
                                                                             2x
e|----------------------------------|----------------------------------|   /
B|----------------------------------|----------------------------------|  /
G|----------------------------------|--7--------7--9--5--------4-------| /
D|--9--9--9--9--7--7--7--7----4--5--|--7--------7--9--5--------4-------|
A|--9--9--9--9--7--7--7--7----4--5--|--5--------5--7--3--------2-------|
E|--7--7--7--7--5--5--5--5----2--3--|----------------------------------|


Riff 6  >  4x
Riff 7  >  2x (End with A5)

Acoustic guitar:

Riff 3  >  2x

Distortion guitar:

Riff 7  >  8x

Acoustic Guitar:

Riff 1  >  2x


Lyrics:

Longing, yearning / wishful, dread
Plaintive, mourning / woeful, weary
Cruel be the wind that carries this tune,
Song Clad in mourning veil.
Deaf be the ears that it falls upon,
Sorrow so overwhelming.

Forever and forever more
She'll haunt these moors
Eternally and even beyond
She'll dance in the early morning mists

In autumn, in summer, in spring
In winters chilling wind
Over moors and beyond lakes
It echoes ever mourning

In autumn, in summer, in spring
In winters chilling wind
Over moors and beyond lakes
The Sad song of the Woods

Longing, yearning / wishful, dread
Plaintive, mourning / woeful, weary
Cold be the mind and cold be the soul,
Cold as glacial waters in late autumn.
Cold be heart that carries such wounds,
She grieves, unsilent.

Forever and forever more
She'll haunt these moors
Eternally and beyond
She'll dance in the early morning mists

In autumn, in summer, in spring
In winters chilling wind
Over moors and beyond lakes
It echoes ever mourning

In autumn, in summer, in spring
In winters chilling wind
Between the seasons it echoes
The Sad song of the Woods.


That was it. Surely a lot of mistakes so I will appreciate every correction you notice.



            
            
Suggest correction
Creating personal tab
Creating personal tab
You can edit any tab online and save it as your Personal.

You can edit, replace or remove any tab part or add personal notes – all changes will be seen only by you.

Personal tabs can be accessed anytime from any device, even offline.
Learn more »
Give kudos to tab author, rate the tab!
1 2 3 4 5
comments
print report bad tab
guest
You may want to rate the tab now too:
select rating
Wanna post a correction for this tab? Suggest correction