Oops, an error
Loading. Please wait.

Live And Learn tab

version 2
version 2

Whole song

by WZRD
58 views 1 this week
1 commentread comment
1 2 3 4 5
2 more votes to show rating
add to favorites
×
Save as Personal and add changes to this tab that will be seen only by you. Learn more ›
×
You can save this tab as Personal to edit and correct it or add notes. All changes will be seen only by you. Learn more »
launch autoscroll
font size
0
reset
how to read this tab
guitar tuner
edit
Autoscroll
slow
fast
+/-
esc
set tempo
stop
Author
Difficulty
-------------------------------------------------------------------------------
                          Live and Learn - WZRD
-------------------------------------------------------------------------------
Tabbed by: Dalton P.
E-mail:

Tuning: Standard (EADGBe)

Played with some crunch and a slight delay.

Intro/Verse (Guitar 1)
e|---------------------------------------------------------------------------|
B|---------------------------------------------------------------------------|
G|---------------------------------------------------------------------------|
D|-----7-------9-----9-------------------------------------------------------|
A|-----7-------9-----9-------------------------------------------------------|
E|--5-----5----7-----7-------------------------------------------------------|
PM  .  .  .    .     .

Intro/Verse (Guitar 2)
e|---------------------------------------------------------------------------|
B|---------------------------------------------------------------------------|
G|---------------------------------------------------------------------------|
D|--6--6--6--7--7--7--6--6--6--7--6--7--9--9--9--9---------------------------|
A|---------------------------------------------------------------------------|
E|---------------------------------------------------------------------------|
PM  .  .  .  .  .  .  .  .  .  .  .  .  .  .  .  .

"Woo hoo hoo"
e|---------------------------------------------------------------------------|
B|---------------------------------------------------------------------------|
G|--------------------7--7--7--7--7--\5--5--5--5--5--------------------------|
D|--7--7--7--7--7-----7--7--7--7--7--\5--5--5--5--5--------------------------|
A|--7--7--7--7--7-----5--5--5--5--5--\3--3--3--3--3--------------------------|
E|--5--5--5--5--5------------------------------------------------------------|

I'm still trying to figure out the ending to the song when the beat and tempo completely change.
Let me know if you figure it out!


************************************

| /   slide up
| \   slide down
| h   hammer-on
| p   pull-off
| ~   vibrato
| +   harmonic
| x   Mute note
| b   Bend
| pb  Pre-bend
| br  Bend release
| pbr Pre-bend release
| brb Bend release bend

************************************
Suggest correction
Creating personal tab
Creating personal tab
You can edit any tab online and save it as your Personal.

You can edit, replace or remove any tab part or add personal notes – all changes will be seen only by you.

Personal tabs can be accessed anytime from any device, even offline.
Learn more »
Give kudos to tab author, rate the tab!
1 2 3 4 5
comments
print report bad tab
1 comment total.
0 reply
Dat0Weird0Guy 158 Aug 11, 2016 03:30 AM

Just need to add the breakdown at the end:)

guest
You may want to rate the tab now too:
select rating
Wanna post a correction for this tab? Suggest correction