Oops, an error
Loading. Please wait.

Barbells Tab

219 views 3 this week
no commentswrite comment
1 2 3 4 5
excellent!
x 3
add to favorites
launch autoscroll
font size
0
reset
how to read this tab
guitar tuner
Autoscroll
slow
fast
+/-
esc
set tempo
stop
Help us to improve Ultimate-Guitar.com Take our survey!
×
Author
Difficulty
Tuning
intermediate
D# G# C# F# A# D#
This is the first song to feature Brad Roberts (Jizmak Da 
Gusha) on vocals, as Mountain Bike Officer Biff Buff.
This song gives great motivation to not go to prison...

All strings tuned half-step down.


INTRO
|--------------------------------------------------------|
|------------------------------5-7-5-7-7b-5-7-7b-5-7b-5--|
|------------------------------5-7-5-7-7b-5-7-7b-5-7b-5--|
|--8-8-8-8-8-8-8-8--8-8--8-8-----------------------------|
|--8-8-8-8-8-8-8-8--8-8--8-8-----------------------------|
|--6-6-6-6-6-6-6-6--6-6--6-6-----------------------------|

|--------------------------------|
|--------------------------------|
|--------------------------------|
|--8-8-8-8-8-8-8-8--10~-9~-8-7~--|
|--8-8-8-8-8-8-8-8--10~-9~-8-7~--|
|--6-6-6-6-6-6-6-6---8~-7~-6-5~--|


VERSES (PART I)
|--------------------------------|
|--------------------------------|
|--------------------------------|
|--7--7-7-7-7-7-7-7-7-7-7-8-8-8--|
|--7--7-7-7-7-7-7-7-7-7-7-8-8-8--|
|--5--5-5-5-5-5-5-5-5-5-5-6-6-6--| x2
PM    . . . . . . . . . .   . .

|-----------------------------------------------------|
|-----------------------------------------------------|
|--------------------------------------5-7-5-7-*7b-5--|
|--8--8-8-8-8-8-8-10-10-10-8-8-8-7~~------------------|
|--8--8-8-8-8-8-8-10-10-10-8-8-8-7~~------------------|
|--6--6-6-6-6-6-6--8--8--8-6-6-6-5~~------------------|
PM    . . . . . .     .  .   . .   


VERSE 1 (PART II) 
|-------------------------|                             \
|-------------------------|                              |
|-------------------------|                              |
|--7--7-7-7-7-7-7-5-7-8~--|                              |
|--7--7-7-7-7-7-7-5-7-8~--|                              |
|--5--5-5-5-5-5-5-3-5-6~--| x2                            \
PM    . . . . . .                                          > x2
                                                          /
|-----------------------------------------------------|  |
|-----------------------------------------------------|  |
|--------------------------------------5-7-5-7-*7b-5--|  |
|--8--8-8-8-8-8-8-10-10-10-8-8-8-7~~------------------|  |
|--8--8-8-8-8-8-8-10-10-10-8-8-8-7~~------------------|  |
|--6--6-6-6-6-6-6--8--8--8-6-6-6-5~~------------------|  /
PM    . . . . . .     .  .   . .


CHORUS
|-------5~--------------3~--------------3~~----------------|
|----------5~--------------3~------------------------------|
|-------------5~---5~~--------3~---------------------------|
|--7~~-------------5~~-------------5~~-------10~-9~-8-7~~--|
|--7~~-------------3~~-------------5~~-------10~-9~-8-7~~--|
|--5~~-----------------------------3~~--------8~-7~-6-5~~--| x2


POST-CHORUS
|----------------------------------------------------------------|
|----------------------------------------------------------------|
|------------------5-7-5-7-*7b-5------------------5-7-5-7-*7b-5--|
|--7--7-7-7-7-7-7-----------------8--8-8-8-8-8-8-----------------|
|--7--7-7-7-7-7-7-----------------8--8-8-8-8-8-8-----------------|
|--5--5-5-5-5-5-5-----------------6--6-6-6-6-6-6-----------------|
PM    . . . . . .                    . . . . . .

|----------------------------------------------------------------|
|----------------------------------------------------------------|
|------------------5-7-5-7-*7b-5------------------5-----7-----8--|
|--5--5-5-5-5-5-5-----------------7--7-7-7-7-7-7-----------------|
|--5--5-5-5-5-5-5-----------------7--7-7-7-7-7-7----0-0---0-0----|
|--3--3-3-3-3-3-3-----------------5--5-5-5-5-5-5-----------------| x2
PM    . . . . . .                    . . . . . .    . .   . .


Repeat    INTRO
          VERSES (PART I)


VERSE 2 (PART II)
|-------------------------|
|-------------------------|
|-------------------------|
|--7--7-7-7-7-7-7-5-7-8~--|
|--7--7-7-7-7-7-7-5-7-8~--|
|--5--5-5-5-5-5-5-3-5-6~--| x2
PM    . . . . . . 

|-----------------------------------------------------|
|-----------------------------------------------------|
|--------------------------------------5-7-5-7-*7b-5--|
|--8--8-8-8-8-8-8-10-10-10-8-8-8-7~~------------------|
|--8--8-8-8-8-8-8-10-10-10-8-8-8-7~~------------------|
|--6--6-6-6-6-6-6--8--8--8-6-6-6-5~~------------------|
PM    . . . . . .     .  .   . .

|-------------------------|
|-------------------------|
|-------------------------|
|--7--7-7-7-7-7-7-5-7-8~--|
|--7--7-7-7-7-7-7-5-7-8~--|
|--5--5-5-5-5-5-5-3-5-6~--| x2
PM    . . . . . . 

|---------------------------------------------|
|---------------------------------------------|
|------------------------------5-7-5-7-*7b-5--|
|--8------10-----8-7--------------------------|
|--8------10-----8-7--------------------------|
|--6-------8-----6-5--------------------------|


Repeat    POST-CHORUS


SOLO
|Rhythm
|---------------------------------------------------------------|
|---------------------------------------------------------------|
|---------------------------------------------------------------|
|--7-7-7-7-7-7-7-7-7-7-7-7-7-7-7-8-8-8-8-8-8-8-8-8-8-8-8-8-8-8--|
|--7-7-7-7-7-7-7-7-7-7-7-7-7-7-7-8-8-8-8-8-8-8-8-8-8-8-8-8-8-8--|
|--5-5-5-5-5-5-5-5-5-5-5-5-5-5-5-6-6-6-6-6-6-6-6-6-6-6-6-6-6-6--|
|PM  . . . . . . . . . . . . . .   . . . . . . . . . . . . . .
|
|Lead
|-------9-11-11b-9---------------------------------------|
|--9-11------------------13-13-13-12-12-12-11~~-11-10~~--|
|------------------9~~-----------------------------------|
|--------------------------------------------------------|
|--------------------------------------------------------|
|--------------------------------------------------------|


|--------------------------------------------------------------|
|--------------------------------------------------------------|
|-----------------------------------------------5-----7-----8--|
|--5-5-5-5-5-5-5-5-5-5-5-5-5-5-5-7-7-7-7-7-7-7-----------------|
|--5-5-5-5-5-5-5-5-5-5-5-5-5-5-5-7-7-7-7-7-7-7----0-0---0-0----|
|--3-3-3-3-3-3-3-3-3-3-3-3-3-3-3-5-5-5-5-5-5-5-----------------| x2
|PM   . . . . . . . . . . . . . .   . . . . . .    . .   . .
|
|-------------------------------------------------------|
|-------------------------------------------------------|
|-------12-11~~--12-11~~-9--7h9p7-----------------------|
|--7h10---------------------------10-9--10-9-7b~~--7~~--|
|-------------------------------------------------------|
|-------------------------------------------------------|

|--12-12-15-12-12-15-12-12-15-12-12-15-12-12-15--13-13-16-13-13-16--|
|-------------------------------------------------------------------|
|-------------------------------------------------------------------|
|-------------------------------------------------------------------|
|-------------------------------------------------------------------|
|-------------------------------------------------------------------|

|--13-13-16-13-13-16---------------------------------------------------|
|--------------------15b-13--15-15-18-15-15-18-15-15-18-15b-18---------|
|--------------------------------------------------------------17b-15--|
|----------------------------------------------------------------------|
|----------------------------------------------------------------------|
|----------------------------------------------------------------------|

|--20b-17----------------------|
|---------20b-17---------------|
|----------------20b--18-------|
|------------------------19~~--|
|------------------------------|
|------------------------------|


Repeat    CHORUS


OUTRO
|-------------------------------------|
|-------------------------------------|
|-------------------------------------|
|--10-10-10-9-9-9-8-8-7--7-7-7-7-7-7--|
|--10-10-10-9-9-9-8-8-7--7-7-7-7-7-7--|
|---8--8--8-7-7-7-6-6-5--5-5-5-5-5-5--| x3
PM  .  .  . . . . . . .  . . . . . .

|---------------------------------------------|
|---------------------------------------------|
|----------------------5-7-5-7-*7b-5-7--------|
|--10-10-10-9-9-9-8-8-------------------7--7--|
|--10-10-10-9-9-9-8-8-------------------7--7--|
|---8--8--8-7-7-7-6-6-------------------5--5--|
PM  .  .  . . . . . .



Legend
========
b    | Bend Note
*    | Pinch Harmonic
PM   | Palm Muting
~    | Hold Note



Well, there it is. This is a great song, and I'm currently working
on more X-Cops songs if anyone's got a request. Feedback is
welcomed.

-- DH
===================================================================
Suggest correction
Give kudos to tab author, rate the tab!
1 2 3 4 5
comments
print report bad tab
guest
You may want to rate the tab now too:
select rating
Please do not post tabs as comments. Select "correction" instead!