Oops, an error
Loading. Please wait.

Gugma Tab

863 views 1 this week
no commentswrite comment
1 2 3 4 5
3 more votes to show rating
add to favorites
launch autoscroll
font size
0
reset
how to read this tab
guitar tuner
Autoscroll
slow
fast
+/-
esc
set tempo
stop
Help us to improve Ultimate-Guitar.com Take our survey!
×
Author
Band: X-ray
Title: Gugma
----------------------------------------
Tabbed by: Harrison Tiu
Tuning: Standard

completo na jud ni, katong una nako nga cepra, murag naa toy sayop.. kani paksit na..
dli kaau ko xur sa picking , pero paksit nsad.. thanks diay ngad2 ni " C H E N F E N G "
naghatag nako sa mp3 ani.. Thx DuDe.. (+_\\) d ko ka cepra ani kung d tungud nimo bai.
----------------------------------------

Intro: Lead Guitar1 [ balik balik ni ]
e|-------------------------------------------|
B|----10-12-13-13-12-------------------------|
G|-12----------------------------------------|
D|-------------------------------------------|
A|-------------------------------------------|
E|-------------------------------------------|

[ inig human in ani dayun sumpay, ]
e|-------------------------------|
B|----10-12-13-13-12-13--12------|
G|-12------------------------12~-|
D|-------------------------------|
A|-------------------------------|
E|-------------------------------|

[ Dungan ni, samtang gi in-ani, ga lead japon ang Lead Guitar1 ]
Lead Guitar2:
e|-------------------------------------------|
B|--1/3~---1-3h1-0---1-3h1-0-3/5~--5/7-5-7-8~|
G|-----------------0-------------------------|
D|-------------------------------------------|
A|-------------------------------------------|
E|-------------------------------------------|

-- Note: sa chorus pud naa poy in ani.. balik2x lang.. --

~~

VERSE:
G
Hunong na
           Em
Wa ako ang paminawa
C
Ikaw lang akong
D
Ang hinigugma
G              Em
Dagana ayaw ko pahikapa
  C
Siluti ako
D
Ayaw ko'g tagda

REF:
G             Em              C             D
Di jud ko kapuyon bisag way kaon ikaw lang ang huna-hunaon
G               Em        C              D
Bisag wa kay kaligo ok gihapon ang imong baho
     C            D
Pero wa kay salig nako
     C                D
Tinarong man ta akong tuyo

CHORUS1:
       G                 Em
Busa buhaton nako ang tanan
          C                  D
Bisag ma kontra nako ang kalibutan
     G                 Em
Kay wa man jud nako makit-an
       C
Ang kalipay ay
D
Naa ra jud sa salida


VERSE:
G
Sakto na
          Em
Ayaw ko'g pala uma
   C
Hunong og katawa
       D
Nga ayaw'g duha duha
G
Ingna ko
     Em
Nga wa kay gusto
    C
Di ko ma insulto
      D
Kay friendly ko nga tawo


repeat ref:

CHORUS2:
       G                 Em
Busa buhaton nako ang tanan
          C                  D
Bisag ma kontra nako ang kalibutan
     G                 Em
Kay wa man jud nako makit-an
       C
Ang kalipay ay
D                    Em                    D
Naa ra jud sa salidaaaah... haaaa ahh haaa haa..


BRIDGE:
  C            G       D
Ikaw lang ang akong kalipay
C      G      D
Di jud ka magmahay

repeat CHORUS1:

Outro:
[ paspasa dri. ]
e|-8/10-8-7h8-7---5h7-5--3h5-3-2-3~----------|
B|-------------------------------------------|
G|-------------------------------------------|
D|-------------------------------------------|
A|-------------------------------------------|
E|-------------------------------------------|

YM : llord_hharison@yahoo.com
friendster: trichinella@operamail.com
Suggest correction
Give kudos to tab author, rate the tab!
1 2 3 4 5
comments
print report bad tab
guest
You may want to rate the tab now too:
select rating
Wanna post a correction for this tab? Suggest correction