Oops, an error
Loading. Please wait.

Walking Evil Tab

376 views 1 this week
no commentswrite comment
1 2 3 4 5
please rate
add to favorites
launch autoscroll
font size
0
reset
how to read this tab
guitar tuner
Autoscroll
slow
fast
+/-
esc
set tempo
stop
Help us to improve Ultimate-Guitar.com Take our survey!
×
Author
Difficulty
novice
-------------------------------------------------------------------------------
                             Walking Evil - X-Sinner
-------------------------------------------------------------------------------
Tabbed by:Kenneth Petersen
Email:k.pete66@yahoo.com

Tuning:standard

From the CD: Get It

This is my first tab so please let me know of any mistakes

Key of Em

  official website: x-sinner.org


  intro.                                                                 4X
e|---------------------------------------------------------------------------|
B|--------------7h8p7------------7h8p7---------------------------------------|
G|--7-------9----------5------7----------------------------------------------|
D|--7-------9----------5------7----------------------------------------------|
A|--5-------7----------3------5----------------------------------------------|
E|-----0000--------------0000------------------------------------------------|
                             also play with verse/solo                    2X
e|-------------------------|-------------------------------------------------|
B|-------------------------|-------------------------------------------------|
G|-5----5-5-5--------------|.----------------------------------------5------.|
D|-5----5-5-5--------------|-2---2---2---2 --2--2-2--2---2---2---2---5-------|
A|-3----3-3-3--2~-0--------|.2---2---2---2---2--2-2--2---2---2---2---3-2/3--.|
E|-----------------3-2h3p2-|-0-0-0-0-0-0-0-0-0--0-0--0-0-0-0-0-0-0-0---------|


   Intro/After chorus before 2nd verse with lead guitar fill/outro
e|---------------------------------------------------------------------------|
B|---------------------------------------------------------------------------|
G|---------------------------------------------------5-----------------------|
D|-2---2---2---2---2--2-2--2---2---2---2-------4-5-4-5---2 2-----------------|
A|-2---2---2---2---2--2-2--2---2---2---2-------4-5-4-----2-2-----------------|
E|-0-0-0-0-0-0-0-0-0--0-0--0-0-0-0-0-0-0-0-12\-----------0-0-----------------|

   Chorus/solo                                                            2X
e|---------------------------------------------------------------------------|
B|-----------3---------------------------------------------------------------|
G|-2---------2--2-------2----------------------------------------------------|
D|-2---------0--2-------2------------------3---------------------------------|
A|-0---0-2-3----0-------0------------------3---------------------------------|
E|-----------------------------------------1---------------------------------|

   bridge
e|-----------------------------------------------------------------------------|
B|-----------------------------------------------------------------------------|
G|------5-4-----7-4/5-----5-4-------------------5-4-----7-4/5-----5-4----------|
D|-2----5-4-2---7-4/5-2---5-4---------------2---5-4-2---7-4/5-2---5-4----------|
A|-2--------2---------2-------3-2-0---0-----2-------2---------2----------------|
E|-0-0------0-0-------0-0-----------3---3-2-0-0-----0-0-------0-0--------------|
|
            3x
e|----------------|
B|----------------|
G|----------------|
D|----------------|
A|-3-2-0---0------|
E|-------3---3-2--|


e|---------------------------------------------------------------------------|
B|---------------------------------------------------------------------------|
G|---------------------------------------------------------------------------|
D|---------------------------------------------------------------------------|
A|---------------------------------------------------------------------------|
E|---------------------------------------------------------------------------|

e|---------------------------------------------------------------------------|
B|---------------------------------------------------------------------------|
G|---------------------------------------------------------------------------|
D|---------------------------------------------------------------------------|
A|---------------------------------------------------------------------------|
E|---------------------------------------------------------------------------|

This is pretty much the rhythm guitar part.

Haven't tabbed the solo yet.  If anyone knows this song, I would love help
with the solo.  I know it's in the Phyrgian mode.
************************************

| /   slide up
| \   slide down
| h   hammer-on
| p   pull-off
| ~   vibrato
| +   harmonic
| x   Mute note
| b   Bend
| pb  Pre-bend
| br  Bend release
| pbr Pre-bend release
| brb Bend release bend

************************************
Suggest correction
What's this?
You can suggest a correction to this tab. Community and Mods will review your correction and vote to approve or reject it.
comments
We did not receive enough feedback on this tab! Please rate:
print report bad tab
1 2 3 4 5
guest
You may want to rate the tab now too:
select rating
Please do not post tabs as comments. Select "correction" instead!