Oops, an error
Loading. Please wait.

Superficial Bass Tab

by X-Y
68 views 1 this week
no commentswrite comment
1 2 3 4 5
please rate
add to favorites
launch autoscroll
font size
0
reset
guitar tuner
Autoscroll
slow
fast
+/-
esc
set tempo
stop
Help us to improve Ultimate-Guitar.com Take our survey!
×
Author
Difficulty
intermediate
-------------------------------------------------------------------------------
                             Superficial - X-Y
-------------------------------------------------------------------------------
Tabbed by: Bassist2323

Tuning: Standard

Sorry if some of it's wrong. I just listened to it.

G|---------------------------------------------------------------------------|
D|-------------------------------------------------22------------------------|
A|--57~--------------023333333300000032--------------023333333300000032------|
E|------0000000000000------------------000000000000--------------------------|

G|---------------------------------------------------------------------------|
D|----------------------------------------------22---------------------------|
A|----------------023333333300000032--------------023333333300000032---------|
E|--00000000000000------------------000000000000-----------------------------|

G|---------------------------------------------------------------------------|
D|---------------------------------------------------------------------------|
A|----------------02333333335555555555555553--------------023~3-25~~~--------|
E|--00000000000000--------------------------00000000000000-------------------|

G|---------------------------------------------------------------------------|
D|---------------------------------------------------------------------------|
A|---------------------------------------------------------------------------|
E|---------------------------------------------------------------------------|

G|---------------------------------------------------------------------------|
D|-----------------2-------------------------------2-------------------2~----|
A|--0232~----32-----3--320---32----2--2-2~-----32---3--320---32----2032------|
E|-------0~~0--0000--00---000--0000-00-0--00000--00--00---000--0000----------|

G|---------------------------------------------------------------------------|
D|-----------------2-------------------------------2-------------------2~~---|
A|--0232~----32-----3--320---32----2--2-2~-----32---3--320---32----2032------|
E|-------0~~0--0000--00---000--0000-00-0--00000--00--00---000--0000----------|

G|---------------------------------------------------------------------------|
D|--------------22------------------------------22---------------------------|
A|----------------02333333---0000032--------------02333333---0000032---------|
E|--000000---000--------------------000000---000-----------------------------|

G|---------------------------------------------------------------------------|
D|---------------2~--------22~-2~------------2~------2~~222222~--------------|
A|-----------------3~~~~~~3---3----------------3~3--3------------------------|
E|--0~~~~~~00-0~-----------------0~~~~~~00-0~--------------------------------|

G|---------------------------------------------------------------------------|
D|----------------2~-----------------------------2~--------------------------|
A|-------23~~3-23~--2~~2--0~~0--0-0-----23~~3-23~--2~~2--0~~0--020-----------|
E|--0~~0-----------------0-----0-0-0~~0-----------------0-----0---0~~0-------|

G|---------------------------------------------------------------------------|
D|-----------2~----------------------------2~--------------------------------|
A|--23~~3-32~--2~~2--0~~0--0-0-----23~3-23~--2~~2--0~~0--020-----------------|
E|------------------0-----0-0-0~~0----------------0-----0---0~~~~~~~~~~~~----|

G|---------------------------------------------------------------------------|
D|---------------------------------------------------------------------------|
A|---------------------------------------------------------------------------|
E|--00----00-------00----00-------00----00-------00----00--------------------|

G|---------------------------------------------------------------------------|
D|------2--------------2--------------2--------------2-----------------------|
A|---------------------------------------------------------------------------|
E|--00----00-------00----00-------00----00-------00----00--------------------|

G|---------------------------------------------------------------------------|
D|--------------------------2~-----------------------------2~----------------|
A|--333333---------23~~3-23~--2~~2--0~~0--0-0-----23~3~-23~--2~~2--0~~0--020-|
E|--------000-0~~0-----------------0-----0-0-0~~0-----------------0-----0---0|

G|---------------------------------------------------------------------------|
D|----------------2~-----------------------------2~--------------------------| 4x
A|-------23~~3-23~--2~~2--0~~0--0-0-----23~~3-23~--2~~2--0~~0--020-----------|
E|--0~~0-----------------0-----0-0-0~~0-----------------0-----0---0~~0-------|

G|---------------------------------------------------------------------------|
D|-----------------2-------------------------------2-------------------2~----|
A|--0232~----32-----3--320---32----2--2-2~-----32---3--320---32----2032------|
E|-------0~~0--0000--00---000--0000-00-0--00000--00--00---000--0000----------|

G|---------------------------------------------------------------------------|
D|-----------2----------------------------2----------------------------------|
A|------32~~3-3~~2-0~~-32~~0-0--0~~--32~~3-3~~2-0~~~-------------------------|
E|--0~~0----------0---0-----0------0~----------0----0--0--0--0-000-----------|


| /  slide up
| \  slide down
| h  hammer-on
| p  pull-off
| ~  vibrato
| +  harmonic
| x  Mute note
===============================================================================
Suggest correction
What's this?
You can suggest a correction to this tab. Community and Mods will review your correction and vote to approve or reject it.
comments
We did not receive enough feedback on this tab! Please rate:
print report bad tab
1 2 3 4 5
guest
You may want to rate the tab now too:
select rating
Please do not post tabs as comments. Select "correction" instead!