Oops, an error
Loading. Please wait.

In This House I Call Home Bass Tab

by X
944 views 4 this week
no commentswrite comment
1 2 3 4 5
please rate
add to favorites
launch autoscroll
font size
0
reset
guitar tuner
Tab Pro tools
  • play this tab
  • loop segment
  • change instrument
  • show fretboard
  • metronome
×
Best way to learn
"In This House I Call Home"
Autoscroll
slow
fast
+/-
esc
set tempo
stop
Contributor
the bass for this song i reaally cool so i've figured it out for you guys


         "IN THIS HOUSE THAT I CALL HOME" bass tab by -X-

G|--------------|----2------|-------------|----2-------|
D|---0--0--0-0--|-4----4----|--0--0--0-0--|-4-----4----|
A|--------------|---------2-|-------------|----------2-|
E|--------------|-----------|-------------|------------|

G|--------------|----------2-|------------|----2-------|
D|--------------|----2--4----|--0--0--0-0-|-4----4-----|
A|---0--0--0-0--|-4----------|------------|---------2--|
E|--------------|------------|------------|------------|

G|--------------|----2------|-------------|----2-------|
D|---0--0--0-0--|-4----4----|--0--0--0-0--|-4-----4----|
A|--------------|---------2-|-------------|----------2-|
E|--------------|-----------|-------------|------------|

G|--------------|----------2-|------------|----2-------|
D|--------------|----2--4----|--0--0--0-0-|-4----4-----|
A|---0--0--0-0--|-4----------|------------|---------2--|
E|--------------|------------|------------|------------|

    hundred lives           are shoved inside
G|--------------|----2------|-------------|----2-------|
D|---0--0--0-0--|-4----4----|--0--0--0-0--|-4-----4----|
A|--------------|---------2-|-------------|----------2-|
E|--------------|-----------|-------------|------------|

G|--------------|----------2-|------------|----2-------|
D|--------------|----2--4----|--0--0--0-0-|-4----4-----|
A|---0--0--0-0--|-4----------|------------|---------2--|
E|--------------|------------|------------|------------|

   guests arrive              to dump their mess!
G|--------------|----2------|-------------|----2-------|
D|---0--0--0-0--|-4----4----|--0--0--0-0--|-4-----4----|
A|--------------|---------2-|-------------|----------2-|
E|--------------|-----------|-------------|------------|


G|--------------|----------2-|------------|----2-------|
D|--------------|----2--4----|--0--0--0-0-|-4----4-----|
A|---0--0--0-0--|-4----------|------------|---------2--|
E|--------------|------------|------------|------------|

   obedient host         and a visiting wife      come outta the bedroom
G|-----------|-----------|------------|-------------|------------|
D|---0--0-0--|-0-0--0-0--|--0-0--0-0--|--5-5--5-5---|--5-5--5-5--|
A|-----------|-----------|------------|-------------|------------|
E|-----------|-----------|------------|-------------|------------|

staightening clothes!
G|--------------------|
D|--2-2-2-2-2-2-2-2---|
A|--------------------|
E|--------------------|

in this house that i call home!
G|---------2----|---------2----|----------0-|-----------0-|
D|---0--0----4--|--0--0------4-|-------2----|--------2----|
A|--------------|--------------|--3--3------|--3--3-------|
E|--------------|--------------|------------|-------------|

in this house that i call home!
G|---------2----|---------2----|----------0-|-----------0-|
D|---0--0----4--|--0--0------4-|-------2----|--------2----|
A|--------------|--------------|--3--3------|--3--3-------|
E|--------------|--------------|------------|-------------|

nobody knows the party rules gotta get in but theres no room!
G|---------2----|---------2----|----------0-|-----------0-|
D|---0--0----4--|--0--0------4-|-------2----|--------2----|
A|--------------|--------------|--3--3------|--3--3-------|
E|--------------|--------------|------------|-------------|

in this house that i call home!
G|---------2----|---------2----|----------0-|-----------0-|
D|---0--0----4--|--0--0------4-|-------2----|--------2----|
A|--------------|--------------|--3--3------|--3--3-------|
E|--------------|--------------|------------|-------------|

G|--------------|----2------|-------------|----2-------|
D|---0--0--0-0--|-4----4----|--0--0--0-0--|-4-----4----|
A|--------------|---------2-|-------------|----------2-|
E|--------------|-----------|-------------|------------|

G|--------------|----------2-|------------|----2-------|
D|--------------|----2--4----|--0--0--0-0-|-4----4-----|
A|---0--0--0-0--|-4----------|------------|---------2--|
E|--------------|------------|------------|------------|

    beautiful walls          are closing in!
G|--------------|----2------|-------------|----2-------|
D|---0--0--0-0--|-4----4----|--0--0--0-0--|-4-----4----|
A|--------------|---------2-|-------------|----------2-|
E|--------------|-----------|-------------|------------|

G|--------------|----------2-|------------|----2-------|
D|--------------|----2--4----|--0--0--0-0-|-4----4-----|
A|---0--0--0-0--|-4----------|------------|---------2--|
E|--------------|------------|------------|------------|

  looking at you         you're having a nightmare!
G|--------------|----2------|-------------|----2-------|
D|---0--0--0-0--|-4----4----|--0--0--0-0--|-4-----4----|
A|--------------|---------2-|-------------|----------2-|
E|--------------|-----------|-------------|------------|


G|--------------|----------2-|------------|----2-------|
D|--------------|----2--4----|--0--0--0-0-|-4----4-----|
A|---0--0--0-0--|-4----------|------------|---------2--|
E|--------------|------------|------------|------------|

   stumble over        tombstone shoes      i reach to surround you
G|-----------|-----------|------------|-------------|------------|
D|---0--0-0--|-0-0--0-0--|--0-0--0-0--|--5-5--5-5---|--5-5--5-5--|
A|-----------|-----------|------------|-------------|------------|
E|-----------|-----------|------------|-------------|------------|

but it's too soon!!
G|--------------------|
D|--2-2-2-2-2-2-2-2---|
A|--------------------|
E|--------------------|

in this house that i call home!
G|---------2----|---------2----|----------0-|-----------0-|
D|---0--0----4--|--0--0------4-|-------2----|--------2----|
A|--------------|--------------|--3--3------|--3--3-------|
E|--------------|--------------|------------|-------------|

in this house that i call home!
G|---------2----|---------2----|----------0-|-----------0-|
D|---0--0----4--|--0--0------4-|-------2----|--------2----|
A|--------------|--------------|--3--3------|--3--3-------|
E|--------------|--------------|------------|-------------|

nobody knows the party rules gotta get in but theres no room!
G|---------2----|---------2----|----------0-|-----------0-|
D|---0--0----4--|--0--0------4-|-------2----|--------2----|
A|--------------|--------------|--3--3------|--3--3-------|
E|--------------|--------------|------------|-------------|

in this house that i call home!
G|---------2----|---------2----|----------0-|-----------0-|
D|---0--0----4--|--0--0------4-|-------2----|--------2----|
A|--------------|--------------|--3--3------|--3--3-------|
E|--------------|--------------|------------|-------------|

and keep repeating this through verses and end with the:

G|-------------|--------|-----------|---------|
D|---0--0-0-0--|--0-0---|-----------|-0~~~~~~-|
A|-------------|--------|---3-2-1-0-|---------|
E|-------------|--------|-----------|---------|

and that's all! yay!

-El Berto

p.s don't let john see this
comments
We did not receive enough feedback on this tab! Please rate:
print report bad tab
1 2 3 4 5
I want to post or [tab]
guest
You may want to rate the tab now too:
select rating
Please do not post tabs as comments. Select "correction" instead!