Oops, an error
Loading. Please wait.

Johny Hit And Run Paulene tab

version 2
version 2

Whole song

  • This is based on live versions. The solos vary sli... Show more
by X
70 views 6 this week
no commentswrite comment
1 2 3 4 5
x 3
add to favorites
×
Save as Personal and add changes to this tab that will be seen only by you. Learn more ›
×
You can save this tab as Personal to edit and correct it or add notes. All changes will be seen only by you. Learn more »
launch autoscroll
font size
0
reset
how to read this tab
guitar tuner
edit
Autoscroll
slow
fast
+/-
esc
set tempo
stop
About this tab version
This is based on live versions. The solos vary slightly but the basic chords are the same in each performance. Since Billy Zoom was playing the song this way live near the time of release, I suspect the album has the same chords and the solos should be somewhat similar as well. Was this info helpful? Yes No
https://www.youtube.com/watch?v=RXOW1ZNdnnc
https://www.youtube.com/watch?v=UoTWFQE1xp4&list=RDUoTWFQE1xp4

[Intro]
(All downsrokes:)
e|---------7/8-8-8-7/8-8-8-7/8-8-8-----------------|
B|---------7/8-8-8-7/8-8-8-7/8-8-8-10--8---8-------|
G|-0--9-10-------------------------10--8h9---------|
D|-10----------------------------------------10-8--|
A|-------------------------------------------------|
E|-------------------------------------------------|

e|---------------|
B|---------------|
G|-4/5-5-5-5-----|
D|-4/5-5-5-5---2-|  (x4)
A|-2/3-3-3-3---0-|
E|-----------5---|

[Verse 1]

He bought a sterilized hypo
To shoot a sex machine drug
He got 24 hours

e|-------------------|
B|-------------------|
G|-------------------|
D|-------------------| (x11 with light palm mute)
A|-9/10-10-10-10-7-7-|
E|-7/8--8--8--8--5-5-|

e|-------------------|
B|-------------------|
G|-------------------|
D|-------------------| (x1 light palm mute on first note then no mute and aggressive down picks)
A|-9/10-10-10-10-7-7-|
E|-7/8--8--8--8--5-5-|

e|-------------------|
B|-------------------|
G|-------------------|
D|-------------------|
A|-9/10-9/10---------|
E|-7/8--7/8----------|

To shoot all Paulene's between the legs he'll throw
96 tears through 24 hours
Sexed once every hour

(Strum next section with strumming pattern: DDU UDU)

e|-------------|---------------|---------------|-------------|
B|-------------|---------------|---------------|-------------|
G|-5-5-5-5-5-5-|-7-7-7-7-7-7-7-|---------------|-------------|
D|-3-5-5-5-5-5-|-7-7-7-7-7-7-7-|-6/7-7-7-7-7-7-|-7-7-7-7-7-7-|  (x3)
A|-3-3-3-3-3-3-|-5-5-5-5-5-5-5-|-6/7-7-7-7-7-7-|-7-7-7-7-7-7-|
E|-------------|---------------|-4/5-5-5-5-5-5-|-5-5-5-5-5-5-|

[Chorus]

Resume downstrokes

Johny hit and run Paulene
Johny hit and run Paulene
Johny hit and run Paulene

e|---------------|
B|---------------|
G|-4/5-5-5-5-----|
D|-4/5-5-5-5---2-|  (x4)
A|-2/3-3-3-3---0-|
E|-----------5---|

Johny hit and run Paulene

e|---------------|
B|---------------|
G|---------------|
D|-2-2-2-2-2-2-2-|  (x3) 
A|-2-2-2-2-2-2-2-|
E|-0-0-0-0-1-1-0-|

e|-----------------|-------------------------|
B|-----------------|-------------------------|
G|-----------------|-------------------------|
D|-9-9-9-9-9-9-9-9-|-10-10-10-10-10-10-10-10-|  (x1  Rapid Downstrokes)
A|-7-7-7-7-7-7-7-7-|-8--8--8--8--8--8--8--8--|
E|-----------------|-------------------------|

[Verse 2]

L.A. bus doors open
Kicking both doors open
When it rested on 6th street

e|-------------------|
B|-------------------|
G|-------------------|
D|-------------------|  (x11 with light palm mute)
A|-9/10-10-10-10-7-7-|
E|-7/8--8--8--8--5-5-|

e|-------------------|
B|-------------------|
G|-------------------|
D|-------------------|  (x1 light palm mute on first note then no mute and aggressive down picks)
A|-9/10-10-10-10-7-7-|
E|-7/8---------5-5-5-|

e|-------------------|
B|-------------------|
G|-------------------|
D|-------------------|
A|-9/10-9/10---------|
E|-7/8--7/8----------|

That's when he drug a girl inside
He was spreading her legs and didn't understand dying
She was still awake

(Strum next section with strumming pattern: DDU UDU)
e|-------------|---------------|---------------|-------------|
B|-------------|---------------|---------------|-------------|
G|-5-5-5-5-5-5-|-7-7-7-7-7-7-7-|---------------|-------------|
D|-3-5-5-5-5-5-|-7-7-7-7-7-7-7-|-6/7-7-7-7-7-7-|-7-7-7-7-7-7-|  (x3)
A|-3-3-3-3-3-3-|-5-5-5-5-5-5-5-|-6/7-7-7-7-7-7-|-7-7-7-7-7-7-|
E|-------------|---------------|-4/5-5-5-5-5-5-|-5-5-5-5-5-5-|

Resume downstrokes

e|---------------|
B|---------------|
G|-4/5-5-5-5-----|
D|-4/5-5-5-5---2-|  (x4)
A|-2/3-3-3-3---0-|
E|-----------5---|

[Chorus]

Johny hit and run Paulene
Johny hit and run Paulene
Johny hit and run Paulene

e|---------------|
B|---------------|
G|---------------|
D|-2-2-2-2-2-2-2-|  (x3  All downstrokes)
A|-2-2-2-2-2-2-2-|
E|-0-0-0-0-1-1-0-|

Johny hit and run Paulene

e|-----------------|-------------------------|
B|-----------------|-------------------------|
G|-----------------|-------------------------|
D|-9-9-9-9-9-9-9-9-|-10-10-10-10-10-10-10-10-|  (x1  Rapid Downstrokes)
A|-7-7-7-7-7-7-7-7-|-8--8--8--8--8--8--8--8--|
E|-----------------|-------------------------|

[Solo]
e|-8-8-8----------8-8-8----------8------8------8------|
B|-8-8-8-10-------8-8-8-10-------8------8------8------|
G|-------10-8h9---------10-8h9-----7/12---7/12---7/12-|
D|-------------10-------------10----------------------|
A|----------------------------------------------------|
E|----------------------------------------------------|

e|---8--------------8-11-11-8-------------------------|
B|-8-8--10----------8-10-10-8-------------------8-7/8-|
G|------10-10-8h9---------------11-10-8-8b9b8---------|
D|---------------10--------------------------10-------|
A|----------------------------------------------------|
E|----------------------------------------------------|

e|----------------------------------------------------|
B|----------------------------------------------------|
G|-10-8-8b9b8---8-8----8-8--8-8---8-8--8-8-8-10b11r---|
D|-----------10-8-8----8-8--8-8---8-8--8-8-8-10b11r---|
A|-----------------9h10---10---10----10---------------|
E|----------------------------------------------------|

When he was waking up
Beside the bed
He found clumps of hair

e|-------------------|
B|-------------------|
G|-------------------|
D|-------------------|  (x11 with light palm mute)
A|-9/10-10-10-10-7-7-|
E|-7/8--8--8--8--5-5-|

e|-------------------|
B|-------------------|
G|-------------------|
D|-------------------|  (x1 light palm mute on first note then no mute and aggressive downstrokes)
A|-9/10-10-10-10-7-7-|
E|-7/8---------5-5-5-|

e|-------------------|
B|-------------------|
G|-------------------|
D|-------------------|
A|-9/10-9/10---------|
E|-7/8--7/8----------|

The last Paulene wouldn't cooperate
She wasn't what you'd call living really
But she was still awake

(Strum next section with strumming pattern: DDU UDU)
e|-------------|---------------|---------------|-------------|
B|-------------|---------------|---------------|-------------|
G|-5-5-5-5-5-5-|-7-7-7-7-7-7-7-|---------------|-------------|
D|-3-5-5-5-5-5-|-7-7-7-7-7-7-7-|-6/7-7-7-7-7-7-|-7-7-7-7-7-7-|  (x3)
A|-3-3-3-3-3-3-|-5-5-5-5-5-5-5-|-6/7-7-7-7-7-7-|-7-7-7-7-7-7-|
E|-------------|---------------|-4/5-5-5-5-5-5-|-5-5-5-5-5-5-|

(Resume downstrokes)
e|---------------|
B|---------------|
G|-4/5-5-5-5-----|
D|-4/5-5-5-5---2-|  (x4)
A|-2/3-3-3-3---0-|
E|-----------5---|

Johny hit and run Paulene
Johny hit and run Paulene
Johny hit and run Paulene

e|---------------|
B|---------------|
G|---------------|
D|-2-2-2-2-2-2-2-|  (x3) 
A|-2-2-2-2-2-2-2-|
E|-0-0-0-0-1-1-0-|

Johny hit and run Paulene

e|-----------------|-------------------------|
B|-----------------|-------------------------|
G|-----------------|-------------------------|
D|-9-9-9-9-9-9-9-9-|-10-10-10-10-10-10-10-10-|  (x1  Rapid Downstrokes)
A|-7-7-7-7-7-7-7-7-|-8--8--8--8--8--8--8--8--|
E|-----------------|-------------------------|

e|---------------|
B|---------------|
G|-4/5-5-5-5-----|
D|-4/5-5-5-5---2-|  (x6)
A|-2/3-3-3-3---0-|
E|-----------5---|

e|-----|
B|-----|
G|-4/5-|
D|-4/5-|  (Sustain with vibrato)
A|-2/3-|
E|-----|



************************************

| h  Hammer-on
| b  Bend
| r  Release
| /  slide up 

************************************
Suggest correction
Creating personal tab
Creating personal tab
You can edit any tab online and save it as your Personal.

You can edit, replace or remove any tab part or add personal notes – all changes will be seen only by you.

Personal tabs can be accessed anytime from any device, even offline.
Learn more »
Give kudos to tab author, rate the tab!
1 2 3 4 5
comments
print report bad tab
guest
You may want to rate the tab now too:
select rating
Wanna post a correction for this tab? Suggest correction