Oops, an error
Loading. Please wait.

Los Angeles bass

version 1
version 1

Whole song

Interactive

by X
43 views 1 this week
no commentswrite comment
1 2 3 4 5
3 more votes to show rating
add to favorites
×
Save as Personal and add changes to this tab that will be seen only by you. Learn more ›
×
You can save this tab as Personal to edit and correct it or add notes. All changes will be seen only by you. Learn more »
launch autoscroll
font size
0
reset
guitar tuner
backing track
0:00
0:00
edit
Autoscroll
slow
fast
+/-
esc
set tempo
stop
Artist: X 
Song: Los Angeles
Tabbed by electricbunny

[Intro]
G|--------------------------------|--------------------------------|
D|1-------------0-----------------|--------------------------------|
A|--------3-----------------------|--------0---0---0---0---0---0---|
E|----------------------3---------|--------------------------------|
 
G|--------------------------------|--------------------------------|
D|1-------------0-----------------|--------------------------------|
A|--------3-----------------------|--------0---0---0---0---0---0---|
E|----------------------3---------|--------------------------------|
                                      
G|--------------------------------|--------------------------------|
D|--------------------------------|--------------------------------|
A|0---0---0---0---0---0---0---0---|0---0---0---0---0---0---0---0---|
E|--------------------------------|--------------------------------|
 
                                  [Verse 1]      
G|--------------------------------|--------------------------------|
D|--------------------------------|--------------------------------|
A|0---0---0---0---0---0---0---0---|0---0---0---0---0---0---0---0---|
E|--------------------------------|--------------------------------|
         
G|--------------------------------|--------------------------------|
D|--------------------------------|0---0---0---0---0---0---0---0---|
A|--------------------------------|--------------------------------|
E|3---3---3---3---3---3---3---3---|--------------------------------|
        
G|--------------------------------|--------------------------------|
D|--------------------------------|--------------------------------|
A|3-------3-------3-------3-------|3-------3-------3-------3-------|
E|--------------------------------|----------------------------3---| 
       
G|--------------------------------|--------------------------------|
D|--------------------------------|--------------------------------|
A|0---0---0---0---0---0---0---0---|--------------------------------|
E|--------------------------------|3---3---3---3---3---3---3---3---|
     
G|--------------------------------|--------------------------------|
D|0---0---0---0---0---0---0---0---|--------------------------------|
A|--------------------------------|3-------3-------3---------------|
E|--------------------------------|--------------------------------|
 
[Chorus]       
G|--------------------------------|--------------------------------|
D|--------------------------------|--------------------------------|
A|0---0---0---0---0---0---0---0---|--------------------------------|
E|--------------------------------|3---3---3---3---3---3---3---3---| 
   
G|--------------------------------|--------------------------------|
D|--------------------------------|--------------------------------|
A|3---3---3---3---3---3---3---3---|0---0---0---0---0---0---0---0---|
E|--------------------------------|--------------------------------|
      
G|--------------------------------|--------------------------------|
D|--------------------------------|--------------------------------|
A|--------------------------------|3---3---3---3---3---3---3---3---|
E|3---3---3---3---3---3---3---3---|--------------------------------|
      
G|--------------------------------|--------------------------------|
D|--------------------------------|--------------------------------|
A|0---0---0---0---0---0---0---0---|--------------------------------|
E|--------------------------------|3---3---3---3---3---3---3---3---|
      
G|--------------------------------|--------------------------------|
D|--------------------------------|--------------------------------|
A|3---3---3---3---3---3---3---3---|0---0---0---0---0---0---0---0---|
E|--------------------------------|--------------------------------|
        
G|--------------------------------|--------------------------------|
D|--------------------------------|--------------------------------|
A|--------------------------------|3---3---3---3---3---3---3---3---|
E|3---3---3---3---3---3---3---3---|--------------------------------|
      
G|--------------------------------|--------------------------------|
D|--------------------------------|--------------------------------|
A|0---0---0---0---0---0---0---0---|--------------------------------|
E|--------------------------------|3---3---3---3---3---3---3---3---|
      
G|--------------------------------|--------------------------------|
D|--------------------------------|--------------------------------|
A|3---3---3---3---3---3---3---3---|0---0---0---0---0---0---0---0---|
E|--------------------------------|--------------------------------|
          
G|--------------------------------|--------------------------------|
D|--------------------------------|--------------------------------|
A|--------------------------------|3---3---3---3---3---3---3---3---|
E|3---3---3---3---3---3---3---3---|--------------------------------| 
        
G|--------------------------------|--------------------------------|
D|--------------------------------|--------------------------------|
A|0---0---0---0---0---0---0---0---|--------------------------------|
E|--------------------------------|--------------------------------|
 
[Pre-Chorus]     
G|--------------------------------|--------------------------------|
D|--------------------2---3-------|--------------------------------|
A|------------3---3-----------3---|1---1---1---1---1---1---1---1---|
E|--------------------------------|--------------------------------|
          
G|--------------------------------|--------------------------------|
D|--------------------2---2-------|--------------------------------|
A|1---1---2---3---3-----------3---|1---1---1---1---1---1---1---1---|
E|--------------------------------|--------------------------------|
       
G|--------------------------------|--------------------------------|
A|--------------------2---3-------|--------------------------------|
D|1---1---2---3---3-----------3---|----1---1---1---1---1---1---1---|
E|--------------------------------|--------------------------------|
 
[Chorus]       
G|--------------------------------|--------------------------------|
D|0---0---0---0---0---0---0---0---|2---2---2---2---2---2---2---2---|
A|--------------------------------|--------------------------------|
E|--------------------------------|--------------------------------|
        
G|--------------------------------|--------------------------------|
D|0---0---0---0---0---0---0---0---|2---2---2---2---2---2---2---2---|
A|--------------------------------|--------------------------------|
E|--------------------------------|--------------------------------|
     
G|--------------------------------|--------------------------------|
D|0---0---0---0---0---0---0---0---|2---2---2---2---2---2---2---2---|
A|--------------------------------|--------------------------------|
E|--------------------------------|--------------------------------|
       
G|------------------------2-------|--------------------------------|
D|0---0---0---0---0---0-------0---|2---2---2---2---2---2---2---2---|
A|--------------------------------|--------------------------------|
E|--------------------------------|--------------------------------|
     
G|--------------------------------|--------------------------------|
D|0---0---0---0---0---0---0---0---|2---2---2---2---2---2---2---2---|
A|--------------------------------|--------------------------------|
E|--------------------------------|--------------------------------|
   
G|--------------------------------|--------------------------------|
D|2---------------0---------------|--------------------------------|
A|--------3-----------------------|0---0---0---0---0---0---0---0---|
E|------------------------3-------|--------------------------------|
     
G|--------------------------------|--------------------------------|
D|--------------------------------|--------------------------------|
A|0---0---0---0---0---0---0---0---|0---0---0---0---0---0---0---0---|
E|--------------------------------|--------------------------------|
 
                                   [Verse 2]
G|--------------------------------|--------------------------------|
D|--------------------------------|--------------------------------|
A|0---0---0---0---0---0---0---0---|0---0---0---0---0---0---0---0---|
E|--------------------------------|--------------------------------| 
      
G|--------------------------------|--------------------------------|
D|--------------------------------|0---0---0---0---0---0---0-------|
A|--------------------------------|------------------------------3-|
E|3---3---3---3---3---3---3---3---|--------------------------------|
         
G|--------------------------------|--------------------------------|
D|--------------------------------|--------------------------------|
A|------3-------3-------3-------3-|------3-------3-------3---------|
E|--------------------------------|----------------------------3---|
       
G|--------------------------------|--------------------------------|
D|--------------------------------|--------------------------------|
A|0---0---0---0---0---0---0---0---|--------------------------------|
E|--------------------------------|3---3---3---3---3---3---3---3---| 
     
G|--------------------------------|--------------------------------|
D|0---0---0---0---0---0---0-------|--------------------------------|
A|--------------------------------|3-------3-------3---------------|
E|--------------------------------|------------------------3-------|
      
G|--------------------------------|--------------------------------|
D|--------------------------------|--------------------------------|
A|0---0---0---0---0---0---0---0---|--------------------------------|
E|--------------------------------|3---3---3---3---3---3---3---3---|
     
G|--------------------------------|--------------------------------|
D|--------------------------------|--------------------------------|
A|3---3---3---3---3---3---3---3---|0---0---0---0---0---0---0---0---|
E|--------------------------------|--------------------------------|
     
G|--------------------------------|--------------------------------|
D|--------------------------------|--------------------------------|
A|--------------------------------|3---3---3---3---3---3---3---3---|
E|3---3---3---3---3---3---3---3---|--------------------------------|
    
G|--------------------------------|--------------------------------|
D|--------------------------------|--------------------------------|
A|0---0---0---0---0---0---0---0---|--------------------------------|
E|--------------------------------|3---3---3---3---3---3---3---3---| 
     
G|--------------------------------|--------------------------------|
D|--------------------------------|--------------------------------|
A|3---3---3---3---3---3---3---3---|0---0---0---0---0---0---0---0---|
E|--------------------------------|--------------------------------| 
        
G|--------------------------------|--------------------------------|
D|--------------------------------|--------------------------------|
A|--------------------------------|3---3---3---3---3---3---3---3---|
E|3---3---3---3---3---3---3---3---|--------------------------------|
 
[Chorus]
G|--------------------------------|--------------------------------|
D|--------------------------------|--------------------------------|
A|0---0---0---0---0---0---0---0---|--------------------------------|
E|--------------------------------|3---3---3---3---3---3---3---3---|
      
G|--------------------------------|--------------------------------|
D|--------------------------------|--------------------------------|
A|3---3---3---3---3---3---3---3---|0---0---0---0---0---0---0---0---|
E|--------------------------------|--------------------------------|
        
G|--------------------------------|--------------------------------|
D|--------------------------------|--------------------------------|
A|--------------------------------|3---3---3---3---3---3---3---3---|
E|3---3---3---3---3---3---3---3---|--------------------------------|
 
                                  [Pre-Chorus]    
G|--------------------------------|--------------------------------|
D|--------------------------------|--------------------2---3-------|
A|0---0---0---0---0---0---0---0---|------------3---3-----------3---|
E|--------------------------------|--------------------------------|
     
G|--------------------------------|--------------------------------|
D|--------------------------------|--------------------2---2-------|
A|1---1---1---1---1---1---1---1---|1---1---2---3---3-----------3---|
E|--------------------------------|--------------------------------|
      
G|--------------------------------|--------------------------------|
D|--------------------------------|--------------------2-----------|
A|1---1---1---1---1---1---1---1---|1---1---2---3---3-----------3---|
E|--------------------------------|--------------------------------|
 
                                  [Chorus]  
G|--------------------------------|--------------------------------|
D|--------------------------------|0---0---0---0---0---0---0---0---|
A|1---1---1---1---1---1---1---1---|--------------------------------|
E|--------------------------------|--------------------------------|
       
G|--------------------------------|--------------------------------|
D|2---2---2---2---2---2---2---2---|0---0---0---0---0---0---0---0---|
A|--------------------------------|--------------------------------|
E|--------------------------------|--------------------------------|
       
G|--------------------------------|--------------------------------|
D|2---2---2---2---2---2---2---2---|0---0---0---0---0---0---0---0---|
A|--------------------------------|--------------------------------|
E|--------------------------------|--------------------------------| 
      
G|--------------------------------|--------------------------------|
D|2---2---2---2---2---2---2---2---|0---0---0---0---0---0---0---0---|
A|--------------------------------|--------------------------------|
E|--------------------------------|--------------------------------| 
       
G|--------------------------------|--------------------------------|
D|2---2---2---2---2---2---2---2---|0---0---0---0---0---0---0---0---|
A|--------------------------------|--------------------------------|
E|--------------------------------|--------------------------------|
       
G|--------------------------------|--------------------------------|
D|2---2---2---2---2---2---2---2---|0---0---0---0---0---0---0---0---|
A|--------------------------------|--------------------------------|
E|--------------------------------|--------------------------------| 
      
G|--------------------------------|--------------------------------|
D|2---2---2---2---2---2---2---2---|0---0---0---0---0---0---0---0---|
A|--------------------------------|--------------------------------|
E|--------------------------------|--------------------------------|
      
G|--------------------------------|--------------------------------|
D|2---2---2---2---2---2---2---2---|2---------------0---------------|
A|--------------------------------|--------3-----------------------|
E|--------------------------------|------------------------3-------|

            
            
Suggest correction
Creating personal tab
Creating personal tab
You can edit any tab online and save it as your Personal.

You can edit, replace or remove any tab part or add personal notes – all changes will be seen only by you.

Personal tabs can be accessed anytime from any device, even offline.
Learn more »
Give kudos to tab author, rate the tab!
1 2 3 4 5
comments
print report bad tab
guest
You may want to rate the tab now too:
select rating
Wanna post a correction for this tab? Suggest correction