Oops, an error
Loading. Please wait.

Los Angeles tab

version 1
version 1

Whole song

Interactive

by X
9,662 views 6 this week
2 commentsread comments
1 2 3 4 5
x 7
add to favorites
×
Save as Personal and add changes to this tab that will be seen only by you. Learn more ›
×
You can save this tab as Personal to edit and correct it or add notes. All changes will be seen only by you. Learn more »
launch autoscroll
font size
0
reset
how to read this tab
guitar tuner
backing track
0:00
0:00
edit
Autoscroll
slow
fast
+/-
esc
set tempo
stop
Author
Difficulty
Artist: X
Song: Los Angeles
Album: Los Angeles
Tabbed by Johnny Kennedy

This song is easy enough, but I might have the order off a little bit. You should have 
problem figuring it out.

Intro
e-------------|
B-------------|
G-------------|
D-9-5-7-------|
A-7-3-5-5-7---|
E-------3-5---|

Verse
e-------------|
B-------------|
G-------------|
D-----5-------|
A-7-5-3-------|
E-5-3---------|

Chorus
e-------------|
B-------------|
G-------------|
D----33-------|
A-44----3-0---|
E-------------|
She gets confused...

e-------------|
B-------------|
G-------------|
D-9-7---------|
A-7-5---------|
E-------------|
Her hands turn red...


Intro (x2)
Verse (x10)
Chorus
Intro
Verse (x10)
Chorus

            
            
Suggest correction
Creating personal tab
Creating personal tab
You can edit any tab online and save it as your Personal.

You can edit, replace or remove any tab part or add personal notes – all changes will be seen only by you.

Personal tabs can be accessed anytime from any device, even offline.
Learn more »
comments
print report bad tab
2 comments total.
0 reply
NASA 10 Mar 13, 2008 09:47 PM

Chorus
e-------------|
B-------------|
G-------------|
D----33-------|
A-44----3-0---|
E-------------|

I don't hear this part in the song. Are you sure its correct?

0 reply
NASA 10 Mar 13, 2008 09:54 PM

I think this is how you play the Chorus
e-------------|
B-------------|
G-5-3-5-3-----|
D-5-3-5-3-----|
A-3-1-3-1-----|
E-------------|
Let last chord ring out before repeating

guest
You may want to rate the tab now too:
select rating
Wanna post a correction for this tab? Suggest correction