Oops, an error
Loading. Please wait.

Motel Room In My Bed Tab

by X
1,221 views 1 this week
no commentswrite comment
1 2 3 4 5
2 more votes to show rating
add to favorites
launch autoscroll
font size
0
reset
how to read this tab
guitar tuner
Autoscroll
slow
fast
+/-
esc
set tempo
stop
Help us to improve Ultimate-Guitar.com Take our survey!
×
hey, how's it goin'?:


               "MOTEL ROOM IN MY BED" by -X-


|--------------------------------------------|-------------------------------------|
|--------------------------------------------|-------------------------------------|
|--------------------------------------------|-------------------------------------|
|--------------------------------------------|-------------------------------------|
|---8--10--8-8--10--8-8--10--8-8--10--8-8-8--|-7--9--7-7--9--7-7--9--7-7--9--7-7-7-|
|---6---6--6-6---6--6-6---6--6-6---6--6-6-6--|-5--5--5-5--5--5-5--5--5-5--5--5-5-5-|

   put the door knob                           on my side

|--------------------------------------------|-------------------------------------|
|--------------------------------------------|-------------------------------------|
|--------------------------------------------|-------------------------------------|
|--------------------------------------------|-------------------------------------|
|---8--10--8-8--10--8-8--10--8-8--10--8-8-8--|-7--9--7-7--9--7-7--9--7-7--9--7-7-7-|
|---6---6--6-6---6--6-6---6--6-6---6--6-6-6--|-5--5--5-5--5--5-5--5--5-5--5--5-5-5-|

  if you dont mind                           I DONT CARE!!!!

|--------------------------------------------|-------------------------------------|
|--------------------------------------------|-------------------------------------|
|--------------------------------------------|-------------------------------------|
|--------------------------------------------|-------------------------------------|
|---8--10--8-8--10--8-8--10--8-8--10--8-8-8--|-7--9--7-7--9--7-7--9--7-7--9--7-7-7-|
|---6---6--6-6---6--6-6---6--6-6---6--6-6-6--|-5--5--5-5--5--5-5--5--5-5--5--5-5-5-|

   put the door knob                           on my side

|--------------------------------------------|-------------------------------------|
|--------------------------------------------|-------------------------------------|
|--------------------------------------------|-------------------------------------|
|--------------------------------------------|-------------------------------------|
|---8--10--8-8--10--8-8--10--8-8--10--8-8-8--|-7--9--7-7--9--7-7--9--7-7--9--7-7-7-|
|---6---6--6-6---6--6-6---6--6-6---6--6-6-6--|-5--5--5-5--5--5-5--5--5-5--5--5-5-5-|

   it's self-locking                                GIVE ME YOUR KEY!!!!!

|--------------------------------------------|-------------------------------------|
|--------------------------------------------|-------------------------------------|
|--------------------------------------------|-------------------------------------|
|--------------------------------------------|-------------------------------------|
|---8--10--8-8--10--8-8--10--8-8--10--8-8-8--|-7--9--7-7--9--7-7--9--7-7--9--7-7-7-|
|---6---6--6-6---6--6-6---6--6-6---6--6-6-6--|-5--5--5-5--5--5-5--5--5-5--5--5-5-5-|

 i go to sleep soggy and forgetful, hopefully not waking up so fitfully!!

|--------------------------------|------------------------------|---|
|--------------------------------|------------------------------|---|
|---7-7-7-7-7-7-7----------------|-7-7-7-7-7-7-7----------------|---|
|---7-7-7-7-7-7-7---5-5-5-5-5-5--|-7-7-7-7-7-7-7---5-5-5-5-5-5--|-3-|
|---5-5-5-5-5-5-5---5-5-5-5-5-5--|-5-5-5-5-5-5-5---5-5-5-5-5-5--|-3-|
|-------------------3-3-3-3-3-3--|-----------------3-3-3-3-3-3--|-1-|



|--------------------------------------------|-------------------------------------|
|--------------------------------------------|-------------------------------------|
|--------------------------------------------|-------------------------------------|
|--------------------------------------------|-------------------------------------|
|---8--10--8-8--10--8-8--10--8-8--10--8-8-8--|-7--9--7-7--9--7-7--9--7-7--9--7-7-7-|
|---6---6--6-6---6--6-6---6--6-6---6--6-6-6--|-5--5--5-5--5--5-5--5--5-5--5--5-5-5-|

repeat riff through next verse and then:

motels do that!   with rubber sheets!  so i can't sleep!

|--------------------------------------------------|
|--------------------------------------------------|
|------------3--5-----------3--5------------3--5---|
|---3-3-3-3--3--5--3-3-3-3--3--5---3-3-3-3--3--5---|
|---3-3-3-3--1--3--3-3-3-3--1--3---3-3-3-3--1--3---|
|---1-1-1-1--------1-1-1-1---------1-1-1-1---------|

staring at my sheets!or crying on my sheets!or bleeding on the same!

|------------------------------------------------------|
|------------------------------------------------------|
|---7--7--7--7--7--7--7--7--7--7--7--7--7--7--7--7--7--|
|---7--7--7--7--7--7--7--7--7--7--7--7--7--7--7--7--7--|
|---5--5--5--5--5--5--5--5--5--5--5--5--5--5--5--5--5--|
|------------------------------------------------------|

solo:

|------6-----6-----6-----6----6--|----5-----5-----5-----5--------|
|--------------------------------|-------------------------------|
|---8b---8b----8b----8b---8b-----|-7b----7b----7b----7b---7b-5~~-|
|--------------------------------|-------------------------------|
|--------------------------------|-------------------------------|
|--------------------------------|-------------------------------|

|---7/8-8-8-8-8-8-8-8--7/8-8-8-8-8-8-8-8--|
|---7/8-8-8-8-8-8-8-8--7/8-8-8-8-8-8-8-8--|
|-----------------------------------------|
|-----------------------------------------|
|-----------------------------------------|
|-----------------------------------------|

   put the door knob                           on my side

|--------------------------------------------|-------------------------------------|
|--------------------------------------------|-------------------------------------|
|--------------------------------------------|-------------------------------------|
|--------------------------------------------|-------------------------------------|
|---8--10--8-8--10--8-8--10--8-8--10--8-8-8--|-7--9--7-7--9--7-7--9--7-7--9--7-7-7-|
|---6---6--6-6---6--6-6---6--6-6---6--6-6-6--|-5--5--5-5--5--5-5--5--5-5--5--5-5-5-|


 and that's all, just do this stuff with the alternate verses and yer done. easy right? i hope so.

-Bert
Suggest correction
Give kudos to tab author, rate the tab!
1 2 3 4 5
comments
print report bad tab
guest
You may want to rate the tab now too:
select rating
Wanna post a correction for this tab? Suggest correction