Oops, an error
Loading. Please wait.

Sex And Dying In High Society Tab

by X
2,839 views 3 this week
no commentswrite comment
1 2 3 4 5
1 last vote to show rating
add to favorites
launch autoscroll
font size
0
reset
how to read this tab
guitar tuner
Autoscroll
slow
fast
+/-
esc
set tempo
stop
Help us to improve Ultimate-Guitar.com Take our survey!
×
here:


                "SEX AND DYING IN HIGH SOCIETY"by -X-

|-----------------|--------------|----------------|--------------|
|-----------------|--------------|----------------|--------------|
|---3-3-------5-5-|--------------|--3-3-------5-5-|--------------|
|---3-3--3-3--5-5-|-5-5-5-5-5-5--|--3-3--3-3--5-5-|-5-5-5-5-5-5--|
|---1-1--3-3--3-3-|-3-3-3-3-3-3--|--1-1--3-3--3-3-|-3-3-3-3-3-3--|
|--------1-1------|--------------|-------1-1------|--------------|

                           
                       
                started out that way                 you'd do anything to stay
|-----------------|--------------|----------------|--------------|
|-----------------|--------------|----------------|--------------|
|---3-3-------5-5-|--------------|--3-3-------5-5-|--------------|
|---3-3--3-3--5-5-|-5-5-5-5-5-5--|--3-3--3-3--5-5-|-5-5-5-5-5-5--|
|---1-1--3-3--3-3-|-3-3-3-3-3-3--|--1-1--3-3--3-3-|-3-3-3-3-3-3--|
|--------1-1------|--------------|-------1-1------|--------------|

              keep your money boys         made of siver and gold
|-----------------|--------------|----------------|--------------|
|-----------------|--------------|----------------|--------------|
|---3-3-------5-5-|--------------|--3-3-------5-5-|--------------|
|---3-3--3-3--5-5-|-5-5-5-5-5-5--|--3-3--3-3--5-5-|-5-5-5-5-5-5--|
|---1-1--3-3--3-3-|-3-3-3-3-3-3--|--1-1--3-3--3-3-|-3-3-3-3-3-3--|
|--------1-1------|--------------|-------1-1------|--------------|

                keep your pekinese              turkish cigarettes!
|-----------------|--------------|----------------|--------------|
|-----------------|--------------|----------------|--------------|
|---3-3-------5-5-|--------------|--3-3-------5-5-|--------------|
|---3-3--3-3--5-5-|-5-5-5-5-5-5--|--3-3--3-3--5-5-|-5-5-5-5-5-5--|
|---1-1--3-3--3-3-|-3-3-3-3-3-3--|--1-1--3-3--3-3-|-3-3-3-3-3-3--|
|--------1-1------|--------------|-------1-1------|--------------|

       your liter that looks like a gun!
|-----------------|--------------|----------------|--------------|
|-----------------|--------------|----------------|--------------|
|---3-3-------5-5-|--------------|--3-3-------5-5-|--------------|
|---3-3--3-3--5-5-|-5-5-5-5-5-5--|--3-3--3-3--5-5-|-5-5-5-5-5-5--|
|---1-1--3-3--3-3-|-3-3-3-3-3-3--|--1-1--3-3--3-3-|-3-3-3-3-3-3--|
|--------1-1------|--------------|-------1-1------|--------------|


so you married your daddy          with a different name
|-------------------------------------------------------------------|
|-------------------------------------------------------------------|
|-------------------------------------------------------------------|
|---3-3-3-3-3-3-3-3-----------------5-5-5-5-5-5-5-5-----------------|
|---1-1-1-1-1-1-1-1-3-3-3-3-3-3-3-3-3-3-3-3-3-3-3-3-3-3-3-3-3-3-3-3-|
|-------------------1-1-1-1-1-1-1-1-----------------1-1-1-1-1-1-1-1-|

'ts sex n dying in a high society,sex n dying in a high society
|-----------------------------------------------------------|
|-----------------------------------------------------------|
|---5--5--7---7--9---9--10--10--5--5--7---7--9---9--10--10--|
|---5--5--7---7--9---9--10--10--5--5--7---7--9---9--10--10--|
|---3--3--5---5--7---7--8---8---3--3--5---5--7---7--8---8---|
|-----------------------------------------------------------|

sex and dying in a high societyyyyyyyyyyyyyyyyyyyyyyyyyyyy
|------------------------------|----------------------------------|
|------------------------------|----------------------------------|
|---5--5--7---7--9---9--10--10-|-10-10-10-10-10-10-10-10-10-10-10-|
|---5--5--7---7--9---9--10--10-|-10-10-10-10-10-10-10-10-10-10-10-|
|---3--3--5---5--7---7--8---8--|-8--8--8--8--8--8--8--8--8--8--8--|
|------------------------------|----------------------------------|


|-----------------|--------------|----------------|--------------|
|-----------------|--------------|----------------|--------------|
|---3-3-------5-5-|--------------|--3-3-------5-5-|--------------|
|---3-3--3-3--5-5-|-5-5-5-5-5-5--|--3-3--3-3--5-5-|-5-5-5-5-5-5--|
|---1-1--3-3--3-3-|-3-3-3-3-3-3--|--1-1--3-3--3-3-|-3-3-3-3-3-3--|
|--------1-1------|--------------|-------1-1------|--------------|

and just repeat this stuff with the next verse
-El Berto mwahaha
Suggest correction
Give kudos to tab author, rate the tab!
1 2 3 4 5
comments
print report bad tab
guest
You may want to rate the tab now too:
select rating
Wanna post a correction for this tab? Suggest correction