Oops, an error
Loading. Please wait.

Some Other Time Tab

by X
1,959 views 1 this week
no commentswrite comment
1 2 3 4 5
excellent!
x 3
add to favorites
launch autoscroll
font size
0
reset
how to read this tab
guitar tuner
Autoscroll
slow
fast
+/-
esc
set tempo
stop
Help us to improve Ultimate-Guitar.com Take our survey!
×
hello again, i was banned so these tabs just start piling up.


               "SOME OTHER TIME" by -X-


|-------------------------------------|-------------------------------------|
|-------------------------------------|-------------------------------------|
|-------------------------------------|-------------------------------------|
|---2-2-2-2-2--4-2--5-5-5-5-5--5-7-5--|--2-2-2-2-2--4-2--5-5-5-5-5--5-7-5---|
|---0-0-0-0-0-------3-3-3-3-3---------|--0-0-0-0-0-------3-3-3-3-3----------|
|-------------------------------------|-------------------------------------|

|-------------------------------------|-------------------------------------|
|-------------------------------------|-------------------------------------|
|-------------------------------------|-------------------------------------|
|---2-2-2-2-2--4-2--5-5-5-5-5--5-7-5--|--2-2-2-2-2--4-2--5-5-5-5-5--5-7-5---|
|---0-0-0-0-0-------3-3-3-3-3---------|--0-0-0-0-0-------3-3-3-3-3----------|
|-------------------------------------|-------------------------------------|


    lets not talk about bombs or the brain impulses of severed limbs
|---------------------------------------------------------------------------|
|---------------------------------------------------------------------------|
|---------------------------------------------------------------------------|
|---2-2-2-2-2-2-2-2---4-4-4-4-4-4-4-4---------------------4-4-4-4-4-4-4-4---|
|---0-0-0-0-0-0-0-0---2-2-2-2-2-2-2-2---2-2-2-2-2-2-2-2---2-2-2-2-2-2-2-2---|
|---------------------------------------0-0-0-0-0-0-0-0---------------------|

   you will always subtract your arms from my arms
|---------------------------------------------------------------------------|
|---------------------------------------------------------------------------|
|---------------------------------------------------------------------------|
|---2-2-2-2-2-2-2-2---4-4-4-4-4-4-4-4---------------------4-4-4-4-4-4-4-4---|
|---0-0-0-0-0-0-0-0---2-2-2-2-2-2-2-2---2-2-2-2-2-2-2-2---2-2-2-2-2-2-2-2---|
|---------------------------------------0-0-0-0-0-0-0-0---------------------|

   someone always interrupts us when we talk so i'm gonna draw this evenings line
|---------------------------------------------------------------------------|
|---------------------------------------------------------------------------|
|---------------------------------------------------------------------------|
|---2-2-2-2-2-2-2-2---4-4-4-4-4-4-4-4---------------------4-4-4-4-4-4-4-4---|
|---0-0-0-0-0-0-0-0---2-2-2-2-2-2-2-2---2-2-2-2-2-2-2-2---2-2-2-2-2-2-2-2---|
|---------------------------------------0-0-0-0-0-0-0-0---------------------|

  before my wash hangs on it for everyone to see
|-----------------------------------------------------------|
|-----------------------------------------------------------|
|-----------------------------------------------------------|
|---2-2-2-2-2-2-2-2---4-4-4-4-4-4-4-4-----------------------|
|---0-0-0-0-0-0-0-0---2-2-2-2-2-2-2-2---2-2-2-2-2-2-2-2-----|
|---------------------------------------0-0-0-0-0-0-0-0-----|

 it's very bad luck to draw the line  the night before the world ends
|---2--2--2-2--2--2-2--2--2-2-----0-0-0--0--0-0-0-------------|
|---3--3--3-3--3--3-3--3--3-3-----0-0-0--0--0-0-0-----0-------|
|---2--2--2-2--2--2-2--2--2-2-----x-x-x--x--x-x-x--2b---2p0---|
|---0--0--0-0--0--0-0--0--0-0-----2-2-2--2--2-2-2-----------2-|
|---------------------------------2-2-2--2--2-2-2-------------|
|-------------------------------------------------------------|

we can draw the line some other
|--------------------------|
|--------------------------|
|--------------------------|
|---4--4--2--2--7--7-7-7---|
|---2--2--0--0--5--5-5-5---|
|--------------------------|

time!
|-------------------------------------|-------------------------------------|
|-------------------------------------|-------------------------------------|
|-------------------------------------|-------------------------------------|
|---2-2-2-2-2--4-2--5-5-5-5-5--5-7-5--|--2-2-2-2-2--4-2--5-5-5-5-5--5-7-5---|
|---0-0-0-0-0-------3-3-3-3-3---------|--0-0-0-0-0-------3-3-3-3-3----------|
|-------------------------------------|-------------------------------------|

    this midnight i will     turn into a beer i will
|---------------------------------------------------------------------------|
|---------------------------------------------------------------------------|
|---------------------------------------------------------------------------|
|---2-2-2-2-2-2-2-2---4-4-4-4-4-4-4-4---------------------4-4-4-4-4-4-4-4---|
|---0-0-0-0-0-0-0-0---2-2-2-2-2-2-2-2---2-2-2-2-2-2-2-2---2-2-2-2-2-2-2-2---|
|---------------------------------------0-0-0-0-0-0-0-0---------------------|

dream of you between nightmares and wars and toss and turn
|---------------------------------------------------------------------------|
|---------------------------------------------------------------------------|
|---------------------------------------------------------------------------|
|---2-2-2-2-2-2-2-2---4-4-4-4-4-4-4-4---------------------4-4-4-4-4-4-4-4---|
|---0-0-0-0-0-0-0-0---2-2-2-2-2-2-2-2---2-2-2-2-2-2-2-2---2-2-2-2-2-2-2-2---|
|---------------------------------------0-0-0-0-0-0-0-0---------------------|

aintyougonnatakemeforaridedrinkanddrivedowntothelariverbed?
|---------------------------------------------------------------------------|
|---------------------------------------------------------------------------|
|---------------------------------------------------------------------------|
|---2-2-2-2-2-2-2-2---4-4-4-4-4-4-4-4---------------------4-4-4-4-4-4-4-4---|
|---0-0-0-0-0-0-0-0---2-2-2-2-2-2-2-2---2-2-2-2-2-2-2-2---2-2-2-2-2-2-2-2---|
|---------------------------------------0-0-0-0-0-0-0-0---------------------|

i'll make no mistakes and i'll behave
|-----------------------------------------------------------|
|-----------------------------------------------------------|
|-----------------------------------------------------------|
|---2-2-2-2-2-2-2-2---4-4-4-4-4-4-4-4-----------------------|
|---0-0-0-0-0-0-0-0---2-2-2-2-2-2-2-2---2-2-2-2-2-2-2-2-----|
|---------------------------------------0-0-0-0-0-0-0-0-----|

 it's very bad luck to draw the line  the night before the world ends
|---2--2--2-2--2--2-2--2--2-2-----0-0-0--0--0-0-0-------------|
|---3--3--3-3--3--3-3--3--3-3-----0-0-0--0--0-0-0-----0-------|
|---2--2--2-2--2--2-2--2--2-2-----x-x-x--x--x-x-x--2b---2p0---|
|---0--0--0-0--0--0-0--0--0-0-----2-2-2--2--2-2-2-----------2-|
|---------------------------------2-2-2--2--2-2-2-------------|
|-------------------------------------------------------------|

we can draw the line some other
|--------------------------|
|--------------------------|
|--------------------------|
|---4--4--2--2--7--7-7-7---|
|---2--2--0--0--5--5-5-5---|
|--------------------------|

time!
|-------------------------------------|-------------------------------------|
|-------------------------------------|-------------------------------------|
|-------------------------------------|-------------------------------------|
|---2-2-2-2-2--4-2--5-5-5-5-5--5-7-5--|--2-2-2-2-2--4-2--5-5-5-5-5--5-7-5---|
|---0-0-0-0-0-------3-3-3-3-3---------|--0-0-0-0-0-------3-3-3-3-3----------|
|-------------------------------------|-------------------------------------|

solo:
|---5-5---5-5--5----8-8----8-8----8-----9-9----9-9----9-101010111121212131314141151515616161717--|
|---5-5---5-5--5----8-8----8-8----8-----9-9----9-9----9-1010101111121212131314141515151616161717-|
|-7b----7b---7b--10b----10b----10b--11b----11b----11b--------------------------------------------|
|------------------------------------------------------------------------------------------------|
|------------------------------------------------------------------------------------------------|

|-------------------------------------|-------------------------------------|
|-------------------------------------|-------------------------------------|
|-------------------------------------|-------------------------------------|
|---2-2-2-2-2--4-2--5-5-5-5-5--5-7-5--|--2-2-2-2-2--4-2--5-5-5-5-5--5-7-5---|
|---0-0-0-0-0-------3-3-3-3-3---------|--0-0-0-0-0-------3-3-3-3-3----------|
|-------------------------------------|-------------------------------------|

one more verse and then your done, just repeat with these riffs.

-bert
Suggest correction
Give kudos to tab author, rate the tab!
1 2 3 4 5
comments
print report bad tab
guest
You may want to rate the tab now too:
select rating
Please do not post tabs as comments. Select "correction" instead!