Oops, an error
Loading. Please wait.

Gorgeous tab

version 1
version 1

Whole song

8,311 views 60 this week
3 commentsread comments
1 2 3 4 5
x 5
add to favorites
×
Save as Personal and add changes to this tab that will be seen only by you. Learn more ›
×
You can save this tab as Personal to edit and correct it or add notes. All changes will be seen only by you. Learn more »
launch autoscroll
font size
0
reset
how to read this tab
guitar tuner
edit
Autoscroll
slow
fast
+/-
esc
set tempo
stop
Author
Difficulty
intermediate
-------------------------------------------------------------------------------
                   Gorgeous - X Ambassadors (Studio Sessions) ACOUSTIC
-------------------------------------------------------------------------------
Tabbed by: TKV
E-mail: t.vrancic@gmail.com

This my first tab, please go easy on me!  Listen to the song, there's a lot "in the pocket" so it's tough to 
display timing (Maybe I should have chosen a chord song for my first tab :P)

This tab has two options: beginner or intermediate, choose one or blend the two to make the song more 
entertaining to play

Tuning: Standard


[Beginner Verse]
             
e|---------------------------------------------------------------------------|
B|---------------------0---0---0-----------------0---0---0-------------------|
G|---------------------------------------------------------------------------|
D|---------------------------------------------------------------------------|
A|-----------------5--------------------------9------------------------------|
E|--------10-12----3-----------------10-12----7------------------------------|

*If you find skipping strings difficult, open D can be played in place of the B


[Intermediate Verse]

                     +   +   +                   +   +   +
e|---------------------------------------------------------------------------|
B|---------------------------------------------------------------------------|
G|---------------------------------------------------------------------------|
D|--------7/-9--------5---5---5------7-----------9---9---9-------------------|
A|--------5/-7----5------------------5\-2----9-------------------------------|
E|----------------3---------------------0----7-------------------------------|

*I personally like the sound of the harmonics, but open B is correct


[Chorus]

e|---------------------0---0---0-------------------0---0---0-----------------|
B|---------------------0---0---0-------------------0---0---0-----------------|
G|---------------------4---4---4-------------------7---7---7-----------------|
D|---------------------5---5---5-------------------9---9---9-----------------|
A|------------------5------3---3----------------9------9---9-----------------|
E|--------10--12----3------3---3------10--12----7------7---7-----------------|


[Guitar Overlay] 
(during falsetto and Chorus)

e|--------------------------7------------------------------------------------|
B|--------------------7---7---7---7------------------------------------------|
G|------------------9---9-------9--------------------------------------------|
D|---------------------------------------------------------------------------|
A|---------------------------------------------------------------------------|
E|---------------------------------------------------------------------------|(repeat as needed)


************************************

| /  Slide up
| \  Slide down
| + Harmonic

************************************

            
            
Suggest correction
Creating personal tab
Creating personal tab
You can edit any tab online and save it as your Personal.

You can edit, replace or remove any tab part or add personal notes – all changes will be seen only by you.

Personal tabs can be accessed anytime from any device, even offline.
Learn more »
comments
print report bad tab
3 comments total.
0 reply
danglabazna 35 Jan 14, 2017 04:29 PM

Hello, what does the + mean?

+1 reply
t.vrancic 42 Jan 14, 2017 05:05 PM

someone edited my notes at the bottom and took them out, it was for HARMONIC.

Thanks, I'll re-add it!

guest
You may want to rate the tab now too:
select rating
Wanna post a correction for this tab? Suggest correction