Oops, an error
Loading. Please wait.

13 Days Tab

307 views 1 this week
no commentswrite comment
1 2 3 4 5
please rate
add to favorites
launch autoscroll
font size
0
reset
how to read this tab
guitar tuner
Autoscroll
slow
fast
+/-
esc
set tempo
stop
Help us to improve Ultimate-Guitar.com Take our survey!
×
Author
Difficulty
Tabbers playing skills
Xeus 2,357
intermediate
intermediate +
I TAKE NO RESPONSIBILITY FOR TRANSCRIBING THIS TAB

i found it on the X Is Loaded Forum posted by Martino

----------------------------------------------------------------------------

13 DAYS TAB

intro 1: clean with delay

E--------------9--------------7-----------------------4-----------------|
B-----7---------------5----------------2-------------------2--------0---|
G-------------------------------------------2-------------------2-------|
D-7------7--------6-------6-------4-------------4-----------------------|
A-----------------------------------------------------------------------|
E-----------------------------------------------------------------------|
(repeat x4)

E--0-----0-----0------0------0------0------0-------0--------------------|
B-10----10----10-----10------9------9------9-------9--------------------|
G-----9-----9-----9------9-------6------6------6-------6----------------|
D-----------------------------------------------------------------------|
A-----------------------------------------------------------------------|
E-----------------------------------------------------------------------|

E-9-------9-------7--------7--------0-------0-------0-------0-----------|
B-0-------0-------0--------0--------7-------7-------9-------9-----------|
G-----6-------6-------6--------6--------6-------6-------6-------6-------|
D-----------------------------------------------------------------------|
A-----------------------------------------------------------------------|
E-----------------------------------------------------------------------|
(repeat x2)


intro 2: with dirty sound

E-9----9---------12-p-9-------------------------------------------------|
B-10---9-h-10-----------[10]-----------------------------10-------------|
G-9----9-----------------------------------------9-h-11-----------------|
D-11---9-h-11--------------------------9-h-11---------------------------|
A-9----9----------------------9-h-12------------------------------------|
E-----------------------------------------------------------------------|

E------------------------12-p-9--------------------------------------0-------|
B---------------------------------[10]--------14-----------------12-----0----|
G--9-s/-11----[9-----]----------------------------11-------------------------|
D-------------[9-h-11]-----------------s/-14----------14-s\13----------------|
A--7-s/-9--------------------------------------------------------------------|
E----------------------------------------------------------------------------|

E-9----9---------12-p-9-------------------------------------------------|
B-10---9-h-10-----------[10]-----------------------------10-------------|
G-9----9-----------------------------------------9-h-11-----------------|
D-11---9-h-11--------------------------9-h-11---------------------------|
A-9----9----------------------9-h-12------------------------------------|
E-----------------------------------------------------------------------|

E----------------------12-p-9-----------------0------------------------------|
B-------------------------------[0]--5-------------5-------------------------|
G9-s/-11----[9-----]-----------------8-b(9)--------8-b(9)-r-8-------------11-|
D-----------[9-h-11]----------------------------------------------7-s/-9-----|
A7-s/-9----------------------------------------------------------------------|
E----------------------------------------------------------------------------|

h=hammer on
p=pull off
s/=slide up
s\=slide down
b=bend up to the fret number in brackets
r=return from bend to the following fret number
[]=fret numbers between these are quick and passing
Suggest correction new What's this?
You can suggest a correction to this tab. Community and Mods will review your correction and vote to approve or reject it.
comments
We did not receive enough feedback on this tab! Please rate:
print report bad tab
1 2 3 4 5
guest
You may want to rate the tab now too:
select rating
Please do not post tabs as comments. Select "correction" instead!