Oops, an error
Loading. Please wait.

Zero Tab

132 views 1 this week
no commentswrite comment
1 2 3 4 5
please rate
add to favorites
launch autoscroll
font size
0
reset
how to read this tab
guitar tuner
Autoscroll
slow
fast
+/-
esc
set tempo
stop
Help us to improve Ultimate-Guitar.com Take our survey!
×
Author
Difficulty
Tabbers playing skills
intermediate
intermediate +
ONCE AGAIN I TAKE NO RESPONSIBILITY FOR THIS TAB

i found this on X Is Loaded forum posted by againstdemons, i think its quite accurate

----------------------------------------------------------------------------


I've tabbed parts of zero, i'm know other bits here and there but i'm missing to much to 
a full tab, oh well,

heres the intro...

E [---------------------------------------------0-----0--------|
B [-----------0-0-0-----------------------------5-----4--------|
G [-----------4-4-0----0-0-0-0-0---0-----------4-----4---------|
D [-------------------4b-b-b-b-5-r-4---------------------------|
A [------------------------------------------------------------|
E [-2~-----------------------------------2~--------------------|


E [--------------------------------------------------------------------|
B [----------------0--0--0-----0-0-0-0-0-0----0----0---0---0-----------|
G [----------------3--4--3~---6-8-9-8-6-4---11---13--11---9------------|
D [--------------------------4-----------------------------------------|
A [--------------------------------------------------------------------|
E [-2b-b-b-b-b-b-b-----------------------------------------------------|


E [------------------------0----|
B [------------------------0----|
G [--------------------x-x-2----|
D [-4p2h4p2h4p2-etc--x-x-4------|
A [-----------------------------|
E [-----------------------------|


<-----------Main Riff------------->

E [-------------------------------------------|
B [-------------------------------------------|
G [-------------------------------------------|
D [-------------------------------------------|
A [------------------9---0-9-0-7-0-6-0--------|
E [-2---2---2-2-2-----------------------------|


E [---------------0---------|
B [---------------3b ~ 5----|
G [-------------------------|
D [-------------------------|
A [-------------------------|
E [-2---2---2-2-2-----------|
Suggest correction
What's this?
You can suggest a correction to this tab. Community and Mods will review your correction and vote to approve or reject it.
comments
We did not receive enough feedback on this tab! Please rate:
print report bad tab
1 2 3 4 5
guest
You may want to rate the tab now too:
select rating
Please do not post tabs as comments. Select "correction" instead!