Oops, an error
Loading. Please wait.

Art Of Life bass

version 1
version 1

Whole song

Interactive

by X Japan
1,945 views 3 this week
no commentswrite comment
1 2 3 4 5
3 more votes to show rating
add to favorites
×
Save as Personal and add changes to this tab that will be seen only by you. Learn more ›
×
You can save this tab as Personal to edit and correct it or add notes. All changes will be seen only by you. Learn more »
launch autoscroll
font size
0
reset
guitar tuner
edit
Autoscroll
slow
fast
+/-
esc
set tempo
stop
#----------------------------------PLEASE NOTE---------------------------------#
#This file is the author's own work and represents their interpretation of the #
#song. You may only use this file for private study, scholarship, or research. #
#------------------------------------------------------------------------------#

ART OF LIFE (Bassline)
As recorded by X Japan
(From the 1993 Album ART OF LIFE)

Transcribed by MajinStylee
	

Words and Music by Yoshiki Hayashi

Gtr I (E A D G) - 'Bass and Piano (Left Hand)'
Gtr II (B E A D G B E) - 'Strings and Violin'

 Desert Rose (0:00)
  Q=75
 4/4
  Gtr II
  Wx7          H..       E   E. S H    +E  S S
|------------|-------------|-------------------|
|------------|-------------|-------------------|
|------------|-------------|----0------------0-|
|------------|-------------|-4----2----(2)-4---|
|------------|-----------2-|-------------------|
|------------|-------------|-------------------|
|------------|-------------|-------------------|


  E. S H    Q    E. S H    +S  E S   H.      Q
|--------------|-------------------|--------------|
|--------------|-------------------|--------------|
|-2--0---------|----0----------2-0-|--------------|
|------4-------|-4----2----(2)-----|-4------------|
|-----------2--|-------------------|---------2----|
|--------------|-------------------|--------------|
|--------------|-------------------|--------------|


  Gtr I
  W                   H.        S E.   W                   W
|-------------------|-------------2--|-------------------|-----------------|
|-------------------|----------------|-------------------|-----------------|
|-------------------|----------------|-------------------|-----------------|
|-------------------|----------------|-------------------|-----------------|
|
| Gtr II
| E. S H    +E  S S   E. S H    Q      E. S H    +S  E S   H.      +E  E
|-------------------|----------------|-------------------|-----------------|
|-------------------|----------------|-------------------|-------------0---|
|----0------------0-|-2--0-----------|----0----------2-0-|-----------------|
|-4----2----(2)-4---|------4---------|-4----2----(2)-----|-4-------(4)-----|
|-------------------|-----------2----|-------------------|-------------2---|
|-------------------|----------------|-------------------|-----------------|
|-------------------|----------------|-------------------|-----------------|


  Gtr II
  E. S H    +E  S S   E. S H    Q    E. S H    +S  E S   H..       E
|-2--3-0----(0)-2-3-|-5--3-2-------|-2--3-0----(0)-5-3-|-2-------------|
|-------------------|-----------0--|-------------------|-----------0---|
|----0------------0-|-2--0---------|----0----------2-0-|---------------|
|-4----2----(2)-4---|------4-------|-4----2----(2)-----|-4-------------|
|-------------------|-----------2--|-------------------|-----------2---|
|-------------------|--------------|-------------------|---------------|
|-------------------|--------------|-------------------|---------------|


  E. S H    +E  S S   E. S H    Q    E. S H    +S  E S   W
|-2--3-0----(0)-2-3-|-5--3-2-------|-2--3-0----(0)-5-3-|-2----||
|-------------------|-----------0--|-------------------|------||
|----0------------0-|-2--0---------|----0----------2-0-|------||
|-4----2----(2)-4---|------4-------|-4----2----(2)-----|-4----||
|-------------------|-----------2--|-------------------|------||
|-------------------|--------------|-------------------|------||
|-------------------|--------------|-------------------|------||


  W           W           W          H    H
|----------|------------|----------|-----------|
|-0--------|-(0)--------|----------|-----------|
|-0--------|------------|-2--------|-0---------|
|-2--------|--4---------|-4--------|-2----4----|
|----------|--6---------|-5--------|-3----6----|
|----------|------------|----------|------7----|
|----------|------------|----------|-----------|


  W          H    Q  Q    H     H        H      H
|----------|------------|-------------|---------------|
|-0--------|------3-----|-------------|---------0-----|
|-0--------|-2-------2--|-0-----2-----|-(2)-----------|
|-2--------|-4----------|-2----(2)----|--4-----(4)----|
|----------|-5----------|-3----(3)----|--5------6-----|
|----------|------------|-------------|---------------|
|----------|------------|-------------|---------------|


  W           W           W          H     H
|----------|------------|----------|-------------|
|-0--------|-(0)--------|-3--------|-2-----------|
|-0--------|------------|-2--------|-2----(2)----|
|-2--------|--4---------|-4--------|-2----(2)----|
|----------|--6---------|----------|-------4-----|
|----------|------------|----------|-------------|
|----------|------------|----------|-------------|


  H.       Q     H    Q  Q    H     Q    Q     H    Q   Q
|--------------|------------|----------------|--------------||
|----------1---|-3----------|-------0--------|----------3---||
|-0-------(0)--|-4----0-----|-2----------2---|-0----2--(2)--||
|-2-------(2)--|-5----2--4--|-4----(4)--(4)--|-2----4--(4)--||
|-3------------|------3--5--|-5-----5---(5)--|-2----5-------||
|--------------|---------7--|----------------|--------------||
|--------------|------------|----------------|--------------||


  W          Q.   E Q  Q    W          Q.   E Q.   S S
|-7--------|-7----8-7--5--|-3--------|-5----3-2----3-5-|
|-0--------|-0----1-0--7--|----------|-----------------|
|----------|-----------8--|-0--------|-2----0------0-2-|
|----------|-----------9--|----------|--------4--------|
|----------|--------------|----------|-----------------|
|----------|--------------|----------|-----------------|
|----------|--------------|----------|-----------------|


  W          Q.   E Q  Q    H    H      H    H
|-7--------|-7----8-7--2--|-3----3----|-2----5----|
|-0--------|-0----1-0--4--|-5----5----|-3----7----|
|----------|-----------4--|-5----6----|-2----8----|
|----------|-----------7--|-----------|------9----|
|----------|--------------|-----------|-----------|
|----------|--------------|-----------|-----------|
|----------|--------------|-----------|-----------|


  Gtr I
  W          W            W          W
|----------|------------|----------|---------------|
|----------|------------|----------|---------------|
|----------|------------|----------|---------------|
|----------|------------|----------|---------------|
|
| Gtr II
| W          H    Q  Q    W          H    E. E. E
|-7--------|-5----7--5--|-5--------|-3----2--3--5--|
|-0--------|------0-----|----------|---------0--4--|
|----------|-2-------2--|-2--------|-0----2--------|
|----------|------------|----------|------1--2--4--|
|----------|------------|----------|---------------|
|----------|------------|----------|---------------|
|----------|------------|----------|---------------|


  W          W           W           H..       S S
|----------|-----------|-----------|------------------||
|----------|-----------|-----------|------------------||
|----------|-----------|-----------|-----------2-2----||
|----------|-----------|-----------|------------------||
|
| W          H    H      H    H      W
|-7--------|-7----5----|-5----7----|-0----------------||
|-0--------|-0---------|------0----|------------------||
|----------|------2----|-2---------|------------------||
|----------|-----------|-----------|-2----------------||
|----------|-----------|-----------|------------------||
|----------|-----------|-----------|------------------||
|----------|-----------|-----------|------------------||


 Distortion Enters
  Q.   S S +Q.   S S   Q.   S S +Q.   E   Q.   S S +H
|--------------------|------------------|-----------------|
|--------------------|------------------|-----------------|
|-7----7-7-(7)---7-6-|-5----5-5-(5)---5-|-3----3-3-(3)----|
|--------------------|------------------|-----------------|
|
| W                    W                  W
|--------------------|------------------|-----------------|
|--------------------|------------------|-----------------|
|--------------------|------------------|-----------------|
|--------------------|------------------|-----------------|
|--------------------|------------------|-----------------|
|--------------------|------------------|-----------------|
|--------------------|------------------|-----------------|


  Q  +S  S E S   E       S   E     S   S
|--------4-4----------------------------------|
|------------4---4----------------------------|
|-2--(2)-----------------2---2-----2---2------|
|---------------------------------------------|
|
|            |------6------| |-----6-----|
| H          S S   S S S   S S S S S S   S
|---------------------------------------------|
|---------------------------------------------|
|----------------------------------------0----|
|------------------1---1---2-1-2-4-2-4--------|
|------------2-3-----3------------------------|
|---------------------------------------------|
|---------------------------------------------|


  Q.   S S +Q.     S S   Q.     S S +Q.     E
|----------------------|----------------------|
|----------------------|----------------------|
|-7----7-7-(7)-----7-6-|-5------5-5-(5)-----5-|
|----------------------|----------------------|
|
| H         E  E E E     Q   Q.         E E E
|----------------------|----------------------|
|-0---------0------0---|-----3----------------|
|--------------2-0-----|-2--------------2-0---|
|----------------------|--------------------4-|
|----------------------|----------------------|
|----------------------|----------------------|
|----------------------|----------------------|


  Q.     S S +H          Q  E. S S S S S S S E
|----------------------|----4--2-4-------4-------|
|----------------------|-----------4-1-----4-----|
|-3------3-3-(3)-------|-2-------------2-----2---|
|----------------------|-------------------------|
|
| Q   Q.         E E E   Q  H.
|----------------------|-------------------------|
|-----1----------------|----0--------------------|
|-0--------------0-----|-------------------------|
|------------------4-2-|-1-----------------------|
|----------------------|-------------------------|
|----------------------|-------------------------|
|----------------------|-------------------------|


  E. S Q    E.  S Q       E. S Q  E. E     E S   E. S Q     E.  S  Q
|-----------------------|----------------------|-------------------------||
|-----------------------|----------------------|-------------------------||
|-3--3-3----5---5-5-----|-7--7-7--7--7-----5-5-|-3--3-3-----5------5-----||
|-----------------------|----------------------|----------------5--------||
|
| Q.     E  E.  E   E S   H.           +S  E S   Q.      E  E.  E.    E
|-7------7-12--10---5-8-|-7------------(7)-3-5-|-7------12-14--15----14--||
|-0------0--5---3-----1-|-0------------(0)-----|-0-------5--7---8-----7--||
|-------------------2---|------------------0-2-|-------------------------||
|-----------------------|----------------------|-------------------------||
|-----------------------|----------------------|-------------------------||
|-----------------------|----------------------|-------------------------||
|-----------------------|----------------------|-------------------------||


  Q=176
  E E E E E E E E   E E E E E E E E   E E E E E E E E   E E E E E E  E E
|-----------------|-----------------|-----------------|------------------|
|-----------------|-----------------|-----------------|---------9-7------|
|-7-7-7-7-7-7-7-7-|-7-7-7-7-7-7-7---|-7-7-7-7-7-7-7-7-|-7---7-------10-9-|
|-----------------|---------------7-|-----------------|---7---7----------|


  E E E E E E E E   E E E E E E E E   E E E E E E E E   E E E E E E E E
|-----------------|---------------7-|-9-9-9-9-9-9-9-9-|-9-9-9-9-5-4-----||
|-----------------|-----------------|-----------------|-------------7-5-||
|-7-7-7-7-7-7-7-7-|-7-7-7-7-7-7-7---|-----------------|-----------------||
|-----------------|-----------------|-----------------|-----------------||


  E E E E E E E E   E E E E E E E E   E E E E E E E E   E E E E E E E E
|-----------------|-----------------|-----------------|-----------------|
|-----------------|-----------------|-----------------|-----------------|
|-5---5---5---5---|-5---5---5---5---|-7-7-7-7-7-7-7-5-|-7-7-7-7-7-7-7-7-|
|---5---5---5---5-|---5---5---5---5-|-----------------|-----------------|


  E E E E E E E E   E E E E E E E E   Q.   Q.   Q    Q.   Q.   Q
|-----------------|-----------------|------5-------|------7-------||
|-----------------|-----------------|--------------|--------------||
|-5---5---5---5---|-5---5---5---5---|-3---------3--|-5---------5--||
|---5---5---5---5-|---5---5---5---5-|--------------|--------------||


  S S S S E S S S S E S S E   S S S S E S S S S E S S E
|---------------------------|---------------------------|
|---------------------------|---------------------------|
|---------------------------|---------------------------|
|-0-0-0-0-3-0-0-0-0-3-0-0-5-|-0-0-0-0-3-0-0-0-0-3-0-0-5-|


  S S S S E S S S S E S S E   E Q  E E Q  E
|---------------------------|---------------|
|---------------------------|---------------|
|---------------------------|---5--5-7-5--7-|
|-0-0-0-0-3-0-0-0-0-3-0-0-5-|---------------|


  S S S S E S S S S E S S E   S S S S E S S S S E S S E
|---------------------------|---------------------------|
|---------------------------|---------------------------|
|---------------------------|---------------------------|
|-0-0-0-0-3-0-0-0-0-3-0-0-5-|-0-0-0-0-3-0-0-0-0-3-0-0-5-|


  S S S S E S S S S E S S E   E Q  E E Q  E
|---------------------------|---------------|
|---------------------------|---------------|
|---------------------------|---5--5-7-5--7-|
|-0-0-0-0-3-0-0-0-0-3-0-0-5-|---------------|


  Q  E E +H       Q  E E +H       S S S S E S S S S E S S E   W
|------5-(5)----|------7-(7)----|---------------------------|------||
|----5----------|----7----------|---------------------------|------||
|-3-------------|-5-------------|---------------------------|------||
|---------------|---------------|-0-0-0-0-3-0-0-0-0-3-0-0-5-|-0----||


 Voices (4:12)
  E E S S S S E E S S S S   E E S S S S E E S S S S
|-------------------------|-------------------------|
|-------------------------|-------------------------|
|-------------------------|-------------------------|
|-0-0-0-0-0-0-0-0-0-0-0-0-|-0-0-0-0-0-0-0-0-0-0-0-0-|


  E E S S S S E E S S S S   E E S S S S E E S S S S
|-------------------------|----------------------------|
|-------------------------|----------------------------|
|-------------------------|----------------------------|
|-3-3-3-3-3-3-3-3-3-3-3-3-|-3-3-3-3-3-3-3-3-3-3-3-3----|


  E E S S S S E E S S S S   E E S S S S E E S S S S
|-------------------------|-------------------------|
|-------------------------|-------------------------|
|-5-5-5-5-5-5-5-5-5-5-5-5-|-5-5-5-5-5-5-5-5-5-5-5-5-|
|-------------------------|-------------------------|


  E E S S S S E E Q    E E E E E E E E
|--------------------|-------------------|
|--------------------|-------------5-4---|
|-7-7-7-7-7-7-7-7-7--|-------------------|
|--------------------|---3-2-3-5-3-------|


  E E S S S S E E S S S S   E E S S S S E E S S S S
|-------------------------|-------------------------|
|-------------------------|-------------------------|
|-------------------------|-------------------------|
|-0-0-0-0-0-0-0-0-0-0-0-0-|-0-0-0-0-0-0-0-0-0-0-0-0-|


  W          E E E E E E E E
|----------|------------------|
|----------|-5-----4-----5----|
|-3--------|---3-3---3-3---3--|
|----------|------------------|


  E E S S S S E E S S S S   E E S S S S E E E E
|-------------------------|---------------------|
|-------------------------|---------------------|
|-5-5-5-5-5-5-5-5-5-5-5-5-|-6-6-6-6-6-6-6---6-9-|
|-------------------------|---------------7-----|


  E E S S S S E E S S S S   E E S S S S q  q
|-------------------------|-------------------||
|-------------------------|-------------------||
|-7-7-7-7-7-7-7-7-7-7-7-7-|-7-7-7-7-7-7-7--5--||
|-------------------------|-------------------||


  E Q.    E Q.     E E E E E E E E   E Q.   E E E E   E Q.   E Q  E
|----------------|---------4-------|----------------|---------------|
|---------5------|---4-5-7---7-5-4-|----------------|---------------|
|-3-3-------3----|-5---------------|----------------|-2-2----2-0--2-|
|----------------|-----------------|-3-3----3-2-3-3-|---------------|
|
| Gtr II
| Q    Q  H        Q   Q   H         H      H         H      H
|---------0------|---------2-------|-3--------------|--------2------|
|----------------|-----------------|--------3-------|-4-------------|
|------0---------|-----2-----------|-0--------------|---------------|
|---------2------|---------4-------|--------0-------|-1------4------|
|----------------|-----0-----------|----------------|---------------|
|------3---------|-----------------|----------------|---------------|
|----------------|-----------------|----------------|---------------|


  E E E E E E E E   E E E E E E E E
|-----------------|-----------------|
|-----------------|-----------------|
|-3-3-3-3-3-3-3-3-|-4-4-4-4-4-4-4-4-|
|-----------------|-----------------|
|
| W                 W
|-----------------|-----------------|
|-----------------|-----------------|
|-----------------|-----------------|
|-----------------|-----------------|
|-----------------|-----------------|
|-----------------|-----------------|
|-----------------|-----------------|


  E E E E E E E E   E E E E E Q   E   H     E Q.
|-----------------|-----------------|--------------|
|-----------------|-----------------|-------5------|
|-5-5-5-5-5-5-5-5-|-2-2-2-2-2-0---2-|-3-------3----|
|-----------------|-----------------|--------------|
|
| W                 Q   Q   Q   Q     Q  Q  H
|-----------------|-----------------|-------0------|
|-----------------|-4---0-----------|--------------|
|-----------------|-----------------|----0---------|
|-----------------|-1-------4---1---|-------2------|
|-----------------|-----2-----------|--------------|
|-----------------|---------2-------|----3---------|
|-----------------|-------------4---|--------------|


  Q  E H     E   H    E E E E   E Q.   E Q.     H    E Q.     Q  E E +E  E Q
|--------------|--------------|---------------|-------------|------------7----||
|----7---------|--------------|--------4------|------5------|----4s7-(7)------||
|-5----5-------|--------------|-2-2------2----|-3------3----|-5------------5--||
|------------5-|-3----3-2-3-3-|---------------|-------------|-----------------||
|
| Q  Q   H       H    H         W               H    H        W
|--------2-----|-3------------|-2-------------|------0------|-5---------------||
|--------------|------3-------|---------------|-------------|-----------------||
|----2---------|-0------------|---------------|-------------|-2---------------||
|--------4-----|------0-------|-4-------------|------2------|-----------------||
|----0---------|--------------|---------------|-------------|-----------------||
|--------------|--------------|---------------|-------------|-----------------||
|--------------|--------------|---------------|-------------|-----------------||


  S S S S S S S S S S S S S S S S   S S S S S S S S S S S S S S S S
|---------------------------------|---------------------------------|
|---------------------------------|---------------------------------|
|---------------------------------|---------------------------------|
|-0-0-0-0-0-0-0-0-0-0-0-0-0-0-0-0-|-0-0-0-0-0-0-0-0-0-0-0-0-0-0-0-0-|


  S S S S S S S S S S S S S S S S   S S S S S S S S S S S S S S S S
|---------------------------------|---------------------------------|
|---------------------------------|---------------------------------|
|---------------------------------|---------------------------------|
|-0-0-0-0-0-0-0-0-0-0-0-0-0-0-0-0-|-0-0-0-0-0-0-0-0-0-0-0-0-0-0-0-0-|


  S S S S S S S S S S S S S S S S   S S S S S S S S S S S S S S S S
|---------------------------------|---------------------------------|
|---------------------------------|---------------------------------|
|---------------------------------|---------------------------------|
|-0-0-0-0-0-0-0-0-0-0-0-0-0-0-0-0-|-0-0-0-0-0-0-0-0-0-0-0-0-0-0-0-0-|


  S S S S S S S S S S S S S S S S   S S S S S S S S E  E.   E.
|---------------------------------|------------------------------||
|---------------------------------|------------------------------||
|---------------------------------|------------------------------||
|-0-0-0-0-0-0-0-0-0-0-0-0-0-0-0-0-|-0-0-0-0-0-0-0-0-0-(2)/-(2)\--||


  E E E E E E E E   E E E E E E E E
|-----------------|-----------------|
|-----------------|-----------------|
|-----------------|-----------------|
|-1-1-1-1-1-1-1-1-|-1-1-1-1-1-1-1-1-|


  E E E E E E E E   E E E E E E E E   E E E E E E E E
|-----------------|-----------------|-----------------|
|-----------------|-----------------|-----------------|
|-----------------|-----------------|-----------------|
|-0-0-0-0-0-0-0-0-|-0-0-0-0-0-0-0-0-|-0-0-0-0-0-0-0-0-|


  E E E E E E E E   E E E E E E E E   E E E E E E E E
|---7-9-----------|-----------------|-----------------|
|-------7-9-6-7-9-|-----------------|-----------------|
|-----------------|-----------------|-----------------|
|-0---------------|-1-1-1-1-1-1-1-1-|-1-1-1-1-1-1-1-1-|
|
| Gtr II
| W                 W                 W
|-----------------|-----------------|-----------------|
|-----------------|-----------------|-----------------|
|-----------------|-----------------|-----------------|
|-----------------|-----------------|-----------------|
|-----------------|-----------------|-----------------|
|-----------------|-----------------|-----------------|
|-----------------|-----------------|-----------------|


  E E E E E E E E   E E E E E   E   E   E
|-----------------|----------------------------||
|-----------------|----------------------------||
|-----------------|----------------------------||
|-3-3-3-3-3-3-3-3-|-3-3-3-3-3---3---3---3------||
|
| W                 H       S S S S S S S  S
|-----------------|-----------0-1-3-5-7-8-10---||
|-----------------|-0-------3---------0-1--3---||
|-----------------|---------------0-2----------||
|-----------------|---------0-2-3--------------||
|-----------------|-2--------------------------||
|-----------------|----------------------------||
|-----------------|----------------------------||


   E E E E E E E E    E E E E E E E E   E E E E E E E E   E E E E E E E E
|------------------|------------------|-----------------|-----------------|
|------------------|------------------|-----------------|-----------------|
|--3-3-3-3-3-3-3-3-|--2-2-2-2-2-2-2-2-|-0-0-0-0-0-0-0-0-|-----------------|
|------------------|------------------|-----------------|-0-0-0-0-0-0-0-0-|
|
|  W                  W                 W                 W
|-12---------------|-10---------------|-8---------------|-7---------------|
|--5---------------|--3---------------|-1---------------|-0---------------|
|------------------|------------------|-----------------|-----------------|
|------------------|------------------|-----------------|-----------------|
|------------------|------------------|-----------------|-----------------|
|------------------|------------------|-----------------|-----------------|
|------------------|------------------|-----------------|-----------------|


  E E E E E E E E   E E E E E E E E
|-----------------|-----------------|
|-----------------|-----------------|
|-----------------|-----------------|
|-1-1-1-1-1-1-1-1-|-1-1-1-1-1-0-1-2-|
|
| W                 H       H
|-5---------------|-1-------5-------|
|-----------------|-----------------|
|-2---------------|---------2-------|
|-----------------|-3---------------|
|-----------------|-----------------|
|-----------------|-----------------|
|-----------------|-----------------|


  E E E E E E E E    E  E E E E   E   E   E
|-----------------|----------------------------|
|-----------------|----------------------------|
|-----------------|----------------------------|
|-3-3-3-3-3-3-3-3-|--3--3-3-3-3---3---3---3----|
|
| W                 +H        S S S S S S S  S
|-3---------------|-(3)---------0-1-3-5-7-8-10-|
|-----------------|-----------3---------0-1--3-|
|-0---------------|-(0)-------------0-2--------|
|-----------------|-----------0-2-3------------|
|-----------------|----------------------------|
|-----------------|----------------------------|
|-----------------|----------------------------|


   E E E E E E E E    E E E E  E E E E   E E E E E E E E    E E E E E E E E
|------------------|-------------------|-----------------|------------------|
|------------------|-------------------|-----------------|------------------|
|--3-3-3-3-3-3-3-3-|--2-2-2-2--2-2-2-2-|-0-0-0-0-0-0-0-0-|------------------|
|------------------|-------------------|-----------------|--0-0-0-0-0-0-0-0-|
|
|  W                  H        H         W                  W
|-12---------------|-10-------15-------|-8---------------|-20---------------|
|--5---------------|--3--------8-------|-1---------------|-13---------------|
|------------------|-------------------|-----------------|------------------|
|------------------|-------------------|-----------------|------------------|
|------------------|-------------------|-----------------|------------------|
|------------------|-------------------|-----------------|------------------|
|------------------|-------------------|-----------------|------------------|


    E  E E E E E E E     E  E E E E E E E
|--------------------|--------------------|
|--------------------|--------------------|
|--------------------|--------------------|
|---1--1-1-1-1-1-1-1-|---1--1-1-1-1-0-1-2-|
|
|  +W                   +W
|-(20)---------------|-(20)---------------|
|-(13)---------------|-(13)---------------|
|--------------------|--------------------|
|--------------------|--------------------|
|--------------------|--------------------|
|--------------------|--------------------|
|--------------------|--------------------|


   E E E E E E E E    E E E E E E  E E
|------------------|-------------------||
|------------------|-------------------||
|------------------|-------------------||
|--3-3-3-3-3-3-3-3-|--4-4-4-4-4-4--4-4-||
|
|  W                  Q   Q   E Q.
|-22---------------|-12---7---4-7------||
|-15---------------|--5---0-----0------||
|------------------|----------1--------||
|------------------|-------------------||
|------------------|-------------------||
|------------------|-------------------||
|------------------|-------------------||


  W          +W           W          +W
|----------|------------|----------|------------|
|----------|------------|----------|------------|
|----------|------------|----------|------------|
|-5--------|-(5)--------|-1--------|-(1)--------|


  H.      Q    W          W          E E  E E E E E E
|------------|----------|----------|-9-7--------------|
|------------|-5--------|----------|-----10-9-7-6-----|
|---------5--|----------|-3--------|--------------8-7-|
|-3----------|----------|----------|------------------|


  H.      E E   Q.   Q.   Q    Q.   Q.   Q    +E  Q  E Q  Q
|-------------|-5----4----5--|--------------|----------------|
|---------5h7-|--------------|-----------3--|-(3)------5--3--|
|-------------|--------------|------3-------|-----3--3-------|
|-5-----------|--------------|-1------------|----------------|


  W          W          H.      +E  E   W
|----------|----------|---------------|------||
|----------|----------|---------------|-7----||
|----------|----------|-------------7-|------||
|-3--------|-4--------|-5-------(5)---|------||


  E E S S S S E E S S S S   E E S S S S E E S S S S
|-------------------------|-------------------------|
|-------------------------|-------------------------|
|-------------------------|-------------------------|
|-5-5-5-5-5-5-5-5-5-5-5-5-|-5-5-5-5-5-5-5-5-5-5-5-5-|


  E E S S S S E E S S S S   E E S S S S E E S S S S
|-------------------------|----------------------------|
|-------------------------|----------------------------|
|-------------------------|----------------------------|
|-1-1-1-1-1-1-1-1-1-1-1-1-|-1-1-1-1-1-1-1-1-1-1-1-1----|


  E E S S S S E E S S S S   E E S S S S E E S S S S
|-------------------------|-------------------------|
|-------------------------|-------------------------|
|-------------------------|-------------------------|
|-2-2-2-2-2-2-2-2-2-2-2-2-|-2-2-2-2-2-2-2-2-2-2-2-2-|


  E E S S S S E E S S S S   E E S S S S E E S S S S
|-------------------------|----------------------------|
|-------------------------|----------------------------|
|-------------------------|----------------------------|
|-3-3-3-3-3-3-3-3-3-3-3-3-|-4-4-4-4-4-4-4-4-4-4-4-4----|


  E E S S S S E E S S S S   E E S S S S E E S S S S
|-------------------------|-------------------------|
|-------------------------|-------------------------|
|-------------------------|-------------------------|
|-5-5-5-5-5-5-5-5-5-5-5-5-|-5-5-5-5-5-5-5-5-5-5-5-5-|


  E E S S S S E E S S S S   E E S S S S E E S S S S
|-------------------------|----------------------------|
|-------------------------|----------------------------|
|-3-3-3-3-3-3-3-3-3-3-3-3-|-3-3-3-3-3-3-3-3-3-3-3-3----|
|-------------------------|----------------------------|


  E E S S S S E E S S S S   E E S S S S E E S S S S
|-------------------------|-------------------------|
|-------------------------|-------------------------|
|-4-4-4-4-4-4-4-4-4-4-4-4-|-4-4-4-4-4-4-4-4-4-4-4-4-|
|-------------------------|-------------------------|
|
| Gtr II
| W                         H           H
|-------------------------|-------------------------|
|-------------------------|-------------------------|
|-------------------------|-------------------------|
|-------------------------|-------------2-----------|
|-------------------------|-------------------------|
|-------------------------|-------------------------|
|-------------------------|-------------------------|


  E E S S S S E E S S S S   E E S S S S E Q  E
|-------------------------|---------------------||
|-------------------------|---------------------||
|-5-5-5-5-5-5-5-5-5-5-5-5-|-2-2-2-2-2-2-2-0--2--||
|-------------------------|---------------------||
|
| W                         W
|-------------------------|---------------------||
|-------------------------|---------------------||
|-------------------------|---------------------||
|-0-----------------------|-1-------------------||
|-------------------------|---------------------||
|-------------------------|---------------------||
|-------------------------|---------------------||


  E E S S S S E E S S S S   E E S S S S E E S S S S
|-------------------------|-------------------------|
|-------------------------|-------------------------|
|-3-3-3-3-3-3-3-3-3-3-3-3-|-5-5-5-5-5-5-5-5-5-5-5-5-|
|-------------------------|-------------------------|
|
| W                         W
|-------------------------|-------------------------|
|-------------------------|-------------------------|
|-------------------------|-------------------------|
|-------------------------|-0-----------------------|
|-3-----------------------|-------------------------|
|-------------------------|-------------------------|
|-------------------------|-------------------------|


  E E S S S S E E S S S S   E E S S S S E E E E
|-------------------------|----------------------|
|-------------------------|-2-2-2-2-2-2-5-4-2----|
|-2-2-2-2-2-2-2-2-2-2-2-2-|-------------------5--|
|-------------------------|----------------------|
|
| W                         W
|-------------------------|----------------------|
|-------------------------|----------------------|
|-------------------------|----------------------|
|-1-----------------------|-2--------------------|
|-------------------------|----------------------|
|-------------------------|----------------------|
|-------------------------|----------------------|


  E E S S S S E E S S S S   E E S S S S E E S S S S
|-------------------------|-------------------------|
|-------------------------|-------------------------|
|-3-3-3-3-3-3-3-3-3-3-3-3-|-4-4-4-4-4-4-4-4-4-4-4-4-|
|-------------------------|-------------------------|
|
| W                         W
|-------------------------|-------------------------|
|-------------------------|-------------------------|
|-------------------------|-------------------------|
|-------------------------|-------------------------|
|-3-----------------------|-4-----------------------|
|-------------------------|-------------------------|
|-------------------------|-------------------------|


  E E S S S S E E S S S S   E E S S S S E Q  E
|-------------------------|---------------------|
|-------------------------|---------------------|
|-5-5-5-5-5-5-5-5-5-5-5-5-|-2-2-2-2-2-2-2-0--2--|
|-------------------------|---------------------|
|
| W                         W
|-------------------------|---------------------|
|-------------------------|---------------------|
|-------------------------|---------------------|
|-0-----------------------|-1-------------------|
|-------------------------|---------------------|
|-------------------------|---------------------|
|-------------------------|---------------------|


   E E S S S S E E S S S S    E E S S S S E E S S S S
|--------------------------|--------------------------|
|--------------------------|--------------------------|
|--3-3-3-3-3-3-3-3-3-3-3-3-|--5-5-5-5-5-5-5-5-5-5-5-5-|
|--------------------------|--------------------------|
|
|  W                          W
|-15-----------------------|-17-----------------------|
|-17-----------------------|-19-----------------------|
|-17-----------------------|-19-----------------------|
|--------------------------|--------------------------|
|--------------------------|--------------------------|
|--------------------------|--------------------------|
|--------------------------|--------------------------|


   E E S S S S E E S S S S    E E S S S S E E S S S S
|--------------------------|-----------------------------|
|--------------------------|-----------------------------|
|--6-6-6-6-6-6-6-6-6-6-6-6-|--7-7-7-7-7-7-7-7-7-7-7-7----|
|--------------------------|-----------------------------|
|
|  W                          W
|-14-----------------------|-15--------------------------|
|-16-----------------------|-17--------------------------|
|-16-----------------------|-16--------------------------|
|--------------------------|-----------------------------|
|--------------------------|-----------------------------|
|--------------------------|-----------------------------|
|--------------------------|-----------------------------|


  E E S S S S E E S S S S    E  E S S S S E E S S S S   W          H    H
|-------------------------|---------------------------|----------|-----------||
|-------------------------|---------------------------|----------|-----------||
|-3-3-3-3-3-3-3-3-3-3-3-3-|--3--3-3-3-3-3-3-3-3-3-3-3-|-5--------|-6---------||
|-------------------------|---------------------------|----------|------7----||
|
| W                         +W                          W          W
|-------------------------|---------------------------|----------|-----------||
|-------------------------|---------------------------|----------|-----------||
|-------------------------|---------------------------|----------|-----------||
|-------------------------|---------------------------|-0--------|-----------||
|-3-----------------------|-(3)-----------------------|----------|-2---------||
|-------------------------|---------------------------|----------|-----------||
|-------------------------|---------------------------|----------|-----------||


  S S S S E S S S S E S S E   S S S S E S S S S E S S E
|---------------------------|---------------------------|
|---------------------------|---------------------------|
|---------------------------|---------------------------|
|-0-0-0-0-3-0-0-0-0-3-0-0-5-|-0-0-0-0-3-0-0-0-0-3-0-0-5-|


  S S S S E S S S S E S S E   E Q  E E Q  E
|---------------------------|---------------|
|---------------------------|---------------|
|---------------------------|---5--5-7-5--7-|
|-0-0-0-0-3-0-0-0-0-3-0-0-5-|---------------|


  S S S S E S S S S E S S E   S S S S E S S S S E S S E
|---------------------------|---------------------------|
|---------------------------|---------------------------|
|---------------------------|---------------------------|
|-0-0-0-0-3-0-0-0-0-3-0-0-5-|-0-0-0-0-3-0-0-0-0-3-0-0-5-|


  S S S S E S S S S E S S E   W
|---------------------------|------|
|---------------------------|------|
|---------------------------|------|
|-0-0-0-0-3-0-0-0-0-3-0-0-5-|-0----|


  E E E E E E E E    E  E E E E E E E
|-----------------|-------------------|
|-----------------|-------------------|
|-----------------|-------------------|
|-0-0-0-0-0-0-0-0-|--0--0-0-0-0-0-0-0-|
|
| Gtr II
| W                 +W
|-7---------------|-(7)---------------|
|-----------------|-------------------|
|-0---------------|-(0)---------------|
|-----------------|-------------------|
|-----------------|-------------------|
|-----------------|-------------------|
|-----------------|-------------------|


  E E E E E E E E    E  E E  E   E  E  E  E
|-----------------|-------------------------|
|-----------------|--5-------4---------5----|
|-3-3-3-3-3-3-3-3-|-----3-3------3--3-----3-|
|-----------------|-------------------------|
|
| W                 +Q.      E   Q     Q
|-8---------------|-(8)-----(8)--3----(3)---|
|-----------------|-------------------------|
|-0---------------|-(0)---------------------|
|-----------------|----------4--(4)----2----|
|-----------------|-------------------------|
|-----------------|-------------------------|
|-----------------|-------------------------|


  E E E E E E E E    E  E E E E E E E   E E E E E Q  E   E E E E  E  E E E
|-----------------|-------------------|----------------|-------------------|
|-----------------|---------------4-4-|-5-5-5-5-5-7--5-|-------------------|
|-5-5-5-5-5-5-5-5-|--5--5-5-5-7-7-----|----------------|-2-2-2-2--2--0-----|
|-----------------|-------------------|----------------|---------------3-2-|
|
| W                 +W                  W                H        H
|-5---------------|-(5)---------------|-7--------------|-2--------5--------|
|-----------------|-------------------|----------------|-------------------|
|-----------------|-------------------|-0--------------|-------------------|
|-4---------------|-(4)---------------|----------------|-4-------(4)-------|
|-----------------|-------------------|----------------|-------------------|
|-----------------|-------------------|----------------|-------------------|
|-----------------|-------------------|----------------|-------------------|


  E  E E E E E  E  E    E  E E E E E E E
|--------------------|-------------------|
|--------------------|-------------------|
|--------------------|-------------------|
|-0--0-0-0-0-0--0--0-|--0--0-0-0-0-0-0-0-|
|
| H.            Q       W
|-3------------(3)---|-(3)---------------|
|--------------------|-------------------|
|--------------------|-------------------|
|-2-------------1----|--2----------------|
|--------------------|-------------------|
|--------------------|-------------------|
|--------------------|-------------------|


   W                 E  E E  E  E E  E  E
|------------------|----------------------|
|------------------|-5-------4-------5----|
|--3---------------|----3-3-----3-3-----3-|
|------------------|----------------------|
|
|  Q.    E  +H       Q.      Q.      Q
|-(3)---(3)-(3)----|-3-------5-------7----|
|------------------|-1------(1)-----(1)---|
|--------0--(0)----|----------------------|
|--2---------------|----------------------|
|------------------|----------------------|
|------------------|----------------------|
|------------------|----------------------|


  E E E E E E E E    E  E E E E E E E   E  E E E E E E E   E  E E E E E  Q
|-----------------|-------------4-----|------------------|-------------------||
|---------7---7-7-|-----------------4-|------------------|-------------------||
|-5-5-5-5---5-----|--6--6-6-6-6---6---|-7--7-7-7-7-7-7-7-|-7------7------5---||
|-----------------|-------------------|------------------|----0-0---0-0------||
|
| W                  W                  H.           Q     H.            Q
|-5---------------|--7----------------|-7----------------|-------------------||
|-----------------|-------------------|--------------0---|-0------------(0)--||
|-----------------|-------------------|-0------------2---|-0-----------------||
|-4---------------|-(4)---------------|------------------|---------------4---||
|-----------------|-------------------|------------------|-------------------||
|-----------------|-------------------|------------------|-------------------||
|-----------------|-------------------|------------------|-------------------||


  E Q.    E Q.     E E E E E E E E   E Q.   E E E E   E Q.   E Q  E
|----------------|---------4-------|----------------|---------------|
|---------5------|---4-5-7---7-5-4-|----------------|---------------|
|-3-3-------3----|-5---------------|----------------|-2-2----2-0--2-|
|----------------|-----------------|-3-3----3-2-3-3-|---------------|
|
| Q    Q  H        Q   Q   H         H      H         H      H
|---------0------|---------2-------|-3--------------|--------2------|
|----------------|-----------------|--------3-------|-4-------------|
|------0---------|-----2-----------|-0--------------|---------------|
|---------2------|---------4-------|--------0-------|-1------4------|
|----------------|-----0-----------|----------------|---------------|
|------3---------|-----------------|----------------|---------------|
|----------------|-----------------|----------------|---------------|


  E E E E E E E E   E E E E E E E E
|-----------------|-----------------|
|-----------------|-----------------|
|-3-3-3-3-3-3-3-3-|-4-4-4-4-4-4-4-4-|
|-----------------|-----------------|
|
| W                 W
|-----------------|-----------------|
|-----------------|-----------------|
|-----------------|-----------------|
|-----------------|-----------------|
|-----------------|-----------------|
|-----------------|-----------------|
|-----------------|-----------------|


  E E E E E E E E   E E E E E Q   E   H     E Q.
|-----------------|-----------------|--------------|
|-----------------|-----------------|-------5------|
|-5-5-5-5-5-5-5-5-|-2-2-2-2-2-0---2-|-3-------3----|
|-----------------|-----------------|--------------|
|
| W                 Q   Q   Q   Q     Q  Q  H
|-----------------|-----------------|-------0------|
|-----------------|-4---0-----------|--------------|
|-----------------|-----------------|----0---------|
|-----------------|-1-------4---1---|-------2------|
|-----------------|-----2-----------|--------------|
|-----------------|---------2-------|----3---------|
|-----------------|-------------4---|--------------|


  Q  E H     E   H    E E E E   E Q.   E Q.     H    E Q.     Q  E E +E  E Q
|--------------|--------------|---------------|-------------|------------7----||
|----7---------|--------------|--------4------|------5------|----4s7-(7)------||
|-5----5-------|--------------|-2-2------2----|-3------3----|-5------------5--||
|------------5-|-3----3-2-3-3-|---------------|-------------|-----------------||
|
| Q  Q   H       H    H         W               H    H        W
|--------2-----|-3------------|-2-------------|------0------|-5---------------||
|--------------|------3-------|---------------|-------------|-----------------||
|----2---------|-0------------|---------------|-------------|-2---------------||
|--------4-----|------0-------|-4-------------|------2------|-----------------||
|----0---------|--------------|---------------|-------------|-----------------||
|--------------|--------------|---------------|-------------|-----------------||
|--------------|--------------|---------------|-------------|-----------------||


  S S S S S S S S S S S S S S S S   S S S S S S S S S S S S S S S S
|---------------------------------|---------------------------------|
|---------------------------------|---------------------------------|
|---------------------------------|---------------------------------|
|-0-0-0-0-0-0-0-0-0-0-0-0-0-0-0-0-|-0-0-0-0-0-0-0-0-0-0-0-0-0-0-0-0-|


  S S S S S S S S S S S S S S S S   S S S S S S S S S S S S S S S S
|---------------------------------|---------------------------------|
|---------------------------------|---------------------------------|
|---------------------------------|---------------------------------|
|-0-0-0-0-0-0-0-0-0-0-0-0-0-0-0-0-|-0-0-0-0-0-0-0-0-0-0-0-0-0-0-0-0-|


  S S S S S S S S S S S S S S S S   S S S S S S S S S S S S S S S S
|---------------------------------|---------------------------------|
|---------------------------------|---------------------------------|
|---------------------------------|---------------------------------|
|-0-0-0-0-0-0-0-0-0-0-0-0-0-0-0-0-|-0-0-0-0-0-0-0-0-0-0-0-0-0-0-0-0-|


  S S S S S S S S S S S S S S S S   S S S S S S S S S S S S S S S S
|---------------------------------|---------------------------------||
|---------------------------------|---------------------------------||
|---------------------------------|---------------------------------||
|-0-0-0-0-0-0-0-0-0-0-0-0-0-0-0-0-|-0-0-0-0-0-0-0-0-0-0-0-0-0-0-0-0-||


  E E E E E E E E   E E E E E E E E   E E E E E E E E   E E E E E E E E
|-----------------|-----------------|-----------------|-----------------|
|-----------------|-----------------|-----------------|-----------------|
|-----------------|-----------------|-----------------|-----------------|
|-1-1-1-1-1-1-1-1-|-1-1-1-1-1-1-1-1-|-1-1-1-1-1-1-1-1-|-1-1-1-1-1-1-1-1-|


  S S S S S S S S S S S S S S S S   S S S S S S S S S S S S S S S S
|---------------------------------|---------------------------------|
|---------------------------------|---------------------------------|
|---------------------------------|---------------------------------|
|-0-0-0-0-0-0-0-0-0-0-0-0-0-0-0-0-|-0-0-0-0-0-0-0-0-1-1-1-1-1-1-1-1-|
|
| Gtr II
| W                                 H               H
|---------------------------------|-----------------5---------------|
|---------------------------------|---------------------------------|
|---------------------------------|---------------------------------|
|---------------------------------|-----------------3---------------|
|---------------------------------|-----------------3---------------|
|---------------------------------|-----------------1---------------|
|---------------------------------|---------------------------------|


  S S S S S S S S S S S S S S S S    E  E E E E E E E
|---------------------------------|-----7-9-----------|
|---------------------------------|---------7-9-6-7-9-|
|---------------------------------|-------------------|
|-0-0-0-0-0-0-0-0-0-0-0-0-0-0-0-0-|--0----------------|
|
| W                                 +W
|-4-------------------------------|-(4)---------------|
|---------------------------------|-------------------|
|---------------------------------|-------------------|
|-2-------------------------------|-(2)---------------|
|-2-------------------------------|-(2)---------------|
|-0-------------------------------|-(0)---------------|
|---------------------------------|-------------------|


  E E E E E E E E   E E E E E E E E   E E E E E E E E   E E E E E E E E
|-----------------|-----------------|-----------------|-----------------|
|-----------------|-----------------|-----------------|-----------------|
|-----------------|-----------------|-----------------|-----------------|
|-1-1-1-1-1-1-1-1-|-1-1-1-1-1-1-1-1-|-1-1-1-1-1-1-1-1-|-1-1-1-1-1-1-1-1-|


  S S S S S S S S S S S S S S S S   S S S S S S S S S S S S S S S S
|---------------------------------|---------------------------------|
|---------------------------------|---------------------------------|
|---------------------------------|---------------------------------|
|-0-0-0-0-0-0-0-0-0-0-0-0-0-0-0-0-|-0-0-0-0-0-0-0-0-1-1-1-1-1-1-1-1-|
|
| Gtr II
| W                                 H               H
|---------------------------------|-----------------5---------------|
|---------------------------------|---------------------------------|
|---------------------------------|---------------------------------|
|---------------------------------|-----------------3---------------|
|---------------------------------|-----------------3---------------|
|---------------------------------|-----------------1---------------|
|---------------------------------|---------------------------------|


  S S S S S S S S S S S S S S S S    E  E E E E E E E
|---------------------------------|-----7-9-----------|
|---------------------------------|---------7-9-6-7-9-|
|---------------------------------|-------------------|
|-0-0-0-0-0-0-0-0-0-0-0-0-0-0-0-0-|--0----------------|
|
| W                                 +W
|-4-------------------------------|-(4)---------------|
|---------------------------------|-------------------|
|---------------------------------|-------------------|
|-2-------------------------------|-(2)---------------|
|-2-------------------------------|-(2)---------------|
|-0-------------------------------|-(0)---------------|
|---------------------------------|-------------------|


  E E E E E E E E    E  E E E E E E E   E E E E E E E E    E  E E E E E E E
|-----------------|-------------------|-----------------|-------------------|
|-----------------|-------------------|-----------------|-------------------|
|-----------------|-------------------|-----------------|-------------------|
|-1-1-1-1-1-1-1-1-|--1--1-1-1-1-1-1-1-|-0-0-0-0-0-0-0-0-|--0--0-0-0-0-0-0-0-|
|
| W                 +W                  W                 +W
|-5---------------|-(5)---------------|-7---------------|-(7)---------------|
|-----------------|-------------------|-0---------------|-(0)---------------|
|-2---------------|-(2)---------------|-----------------|-------------------|
|-----------------|-------------------|-----------------|-------------------|
|-----------------|-------------------|-----------------|-------------------|
|-----------------|-------------------|-----------------|-------------------|
|-----------------|-------------------|-----------------|-------------------|


  E E E E E E E E    E  E E E E E E E    E E E E E E E E    E E E E E E E E
|-----------------|-------------------|------------------|------------------||
|-----------------|-------------------|------------------|------------------||
|-----------------|-------------------|------------------|------------------||
|-1-1-1-1-1-1-1-1-|--1--1-1-1-1-1-1-1-|--3-3-3-3-3-3-3-3-|--4-4-4-4-4-4-4-4-||
|
| W                 +W                   W                  W
|-8---------------|-(8)---------------|-10---------------|-12---------------||
|-1---------------|-(1)---------------|--3---------------|--5---------------||
|-----------------|-------------------|------------------|------------------||
|-----------------|-------------------|------------------|------------------||
|-----------------|-------------------|------------------|------------------||
|-----------------|-------------------|------------------|------------------||
|-----------------|-------------------|------------------|------------------||


 Interlude (8:15)
  Q=82
  W            W          W               W
|------------|----------|---------------|----------|
|------------|----------|---------------|----------|
|------------|----------|---------------|----------|
|-5----------|----------|---------------|----------|
|
| H.      Q    W          H.      +E  E   W
|------------|----------|---------------|----------|
|------------|----------|---------------|----------|
|------------|----------|---------------|----------|
|------------|----------|---------------|----------|
|-0----------|----------|-0-------(0)---|----------|
|---------0--|-1--------|-------------0-|-1--------|
|------------|----------|---------------|----------|


  W            W          W            W
|------------|----------|------------|------|
|------------|----------|------------|------|
|------------|----------|------------|------|
|------------|----------|------------|------|
|
| H    Q  Q    W          H    Q  Q    W
|------------|----------|------------|------|
|------------|----------|------------|------|
|------------|----------|------------|------|
|------0-----|----------|------2--0--|------|
|---------3--|-2--------|------------|-4----|
|-2----------|----------|-4----------|------|
|------------|----------|------------|------|


  W            W           W            W            W
|------------|----------|-------------|----------|---------||
|------------|----------|-------------|----------|---------||
|------------|----------|-------------|-0--------|-/12-----||
|------------|----------|-------------|----------|---------||
|
| H    Q  Q    W          +H     H      W           +W
|------------|----------|-------------|----------|---------||
|------------|----------|-------------|----------|---------||
|------------|----------|-------------|----------|---------||
|------3--2--|-0--------|-(0)----2----|----------|---------||
|-3----------|----------|-------------|-0--------|--(0)----||
|------------|----------|-------------|----------|---------||
|------------|----------|-------------|----------|---------||


 Return (8:50)
  Q  S S S S Q  S S S S   H    Q  Q    Q  S S S S H      Q  Q  Q  Q
|-----------------------|------------|-----------------|-------------|
|-----------------------|------------|-----------------|-------2-----|
|-0--0------------------|------3-----|-----------------|-3--3-----2--|
|------3-1-0-1--1-0-1-2-|-3-------0--|-1--1-0-1-2-3----|-------------|
|
| H          H            H    H       H          H      H     H
|-0----------5----------|-7----8-----|-5----------7----|-3-----4-----|
|-----------------------|-0----1-----|------------0----|-------------|
|------------2----------|------------|-2---------------|-0-----1-----|
|-2---------------------|------------|-----------------|-------------|
|-----------------------|------------|-----------------|-------------|
|-----------------------|------------|-----------------|-------------|
|-----------------------|------------|-----------------|-------------|


  Q  S S S S Q.   E   H    Q  S S E     Q  E E S S E E E   Q  Q  Q  Q
|-------------------|-----------------|------------------|--------------||
|-------------------|-----------------|----3---------3---|----5--6------||
|-------------------|---------0-2-3---|------------------|----------7---||
|-1--1-0-1-2-3----3-|-4----5----------|-1----1-1-0-1---1-|-3------------||
|
| H          H        H    Q  S S S S   H      Q     Q     H     Q  Q
|-5----------7------|-7----8--8-7-0---|--------1-----5---|-------0--7---||
|------------0------|-0----1--1-0---3-|-1----------------|-3--------0---||
|-2-----------------|-----------------|--------------2---|--------------||
|-------------------|-------------2-0-|--------3---------|-0-----2------||
|-------------------|-----------------|-3----------------|--------------||
|-------------------|-----------------|------------------|--------------||
|-------------------|-----------------|------------------|--------------||


  Q  S S S S Q  S S S S   H    Q  Q    Q  S S S S E Q  E   Q  +S  E S  H
|-----------------------|------------|-------------------|--------5-4--3----|
|-----------------------|------------|-------------------|------------------|
|-0--0------------------|------3-----|-------------------|-3--(3)-----------|
|------3-1-0-1--1-0-1-2-|-3-------0--|-1--1-0-1-2-3-3--3-|------------------|
|
| W                       H    H       H          H        H           H
|-8---------------------|-7----8-----|-5----------7------|-8----------15----|
|-1---------------------|-0----1-----|------------0------|-1-----------8----|
|-----------------------|------------|-2-----------------|------------------|
|-----------------------|------------|-------------------|------------------|
|-----------------------|------------|-------------------|------------------|
|-----------------------|------------|-------------------|------------------|
|-----------------------|------------|-------------------|------------------|


   H     Q   Q     H       Q  S S E    Q  E E. S E E E    Q  Q  Q  Q
|---------------|-------------------|------------------|---------------||
|---------------|-------------------|-----3-3------3---|---------------||
|--0------------|----------0--0-2-3-|------------------|---------------||
|--------3---1--|--0----------------|--1-------1-1---1-|--3--3--4--0---||
|
|  H     Q   Q     Q   Q   H           W                  W
|-13----10--15--|-16--19--17--------|-17---------------|-19------------||
|--6-----3---8--|--9--12--10--------|-10---------------|-12------------||
|---------------|-------------------|------------------|---------------||
|---------------|-------------------|------------------|---------------||
|---------------|-------------------|------------------|---------------||
|---------------|-------------------|------------------|---------------||
|---------------|-------------------|------------------|---------------||


  Q=176
 3/4         4/4             3/4          4/4
  E  E H       E  E H.         E  E H       E  E H.
|-----------|---------------|------------|---------------|
|-----------|---------------|------------|---------------|
|-0--0------|--0--0---------|--0--0------|--0--0---------|
|-----------|---------------|------------|---------------|
|
| H.          +W              +H.          +W
|-5---------|-(5)-----------|-(5)--------|-(5)-----------|
|-----------|---------------|------------|---------------|
|-2---------|-(2)-----------|-(2)--------|-(2)-----------|
|-----------|---------------|------------|---------------|
|-----------|---------------|------------|---------------|
|-----------|---------------|------------|---------------|
|-----------|---------------|------------|---------------|


 3/4          4/4             3/4          4/4
   E  E H       E  E H.         E  E H       E  E H.
|------------|---------------|------------|-------------|
|------------|---------------|------------|-------------|
|------------|---------------|------------|-------------|
|--1--1------|--1--1---------|--1--1------|--1--1-------|
|
| +H.          +W              +H.          +W
|-(5)--------|-(5)-----------|-(5)--------|-(5)---------|
|------------|---------------|------------|-------------|
|-(2)--------|-(2)-----------|-(2)--------|-(2)---------|
|------------|---------------|------------|-------------|
|------------|---------------|------------|-------------|
|------------|---------------|------------|-------------|
|------------|---------------|------------|-------------|


 3/4          4/4             3/4          4/4
   E  E H       E  E H.         E  E H       E  E H.
|------------|---------------|------------|---------------|
|------------|---------------|------------|---------------|
|--0--0------|--0--0---------|--0--0------|--0--0---------|
|------------|---------------|------------|---------------|
|
| +H.          +W              +H.          +W
|-(5)--------|-(5)-----------|-(5)--------|-(5)-----------|
|------------|---------------|------------|---------------|
|-(2)--------|-(2)-----------|-(2)--------|-(2)-----------|
|------------|---------------|------------|---------------|
|------------|---------------|------------|---------------|
|------------|---------------|------------|---------------|
|------------|---------------|------------|---------------|


 3/4          4/4             3/4         4/4
   E  E H       E  E H.        E  E H       E  E H.
|------------|---------------|-----------|-------------||
|------------|---------------|-----------|-------------||
|------------|---------------|-----------|-------------||
|--1--1------|--1--1---------|-0--0------|--0--0-------||
|
| +H.          +W              H.          +W
|-(5)--------|-(5)-----------|-7---------|-(7)---------||
|------------|---------------|-0---------|-(0)---------||
|-(2)--------|-(2)-----------|-----------|-------------||
|------------|---------------|-----------|-------------||
|------------|---------------|-----------|-------------||
|------------|---------------|-----------|-------------||
|------------|---------------|-----------|-------------||


 3/4                           4/4
   S  S  S  S S S S S S S S S    S  S  S  S S  S S S S S S S S S S S
|-----------------------------|--------------------------------------|
|-----------------------------|--------------------------------------|
|--0--0--0--0-0-0-0-0-0-0-0-0-|--0--0--0--0-0--0-0-0-0-0-0-0-0-0-0-0-|
|-----------------------------|--------------------------------------|
|
|  S  S  S  S H                  S  S  S  S H.
|-----------------------------|--------------------------------------|
|-----------------------------|--------------------------------------|
|-----------------------------|--------------------------------------|
|-----------------------------|--------------------------------------|
|-12-12-12-12-----------------|-12-12-12-12--------------------------|
|-----------------------------|--------------------------------------|
|-----------------------------|--------------------------------------|


 3/4                           4/4
   S  S  S  S S S S S S S S S    S  S  S  S S  S S S S S S S S S S S
|-----------------------------|-----------------------------------------|
|-----------------------------|-----------------------------------------|
|--0--0--0--0-0-0-0-0-0-0-0-0-|--0--0--0--0-0--0-0-0-0-0-0-0-0-0-0-0----|
|-----------------------------|-----------------------------------------|
|
|  S  S  S  S H                  S  S  S  S H.
|-----------------------------|-----------------------------------------|
|-----------------------------|-----------------------------------------|
|-----------------------------|-----------------------------------------|
|-----------------------------|-----------------------------------------|
|-12-12-12-12-----------------|-12-12-12-12-----------------------------|
|-----------------------------|-----------------------------------------|
|-----------------------------|-----------------------------------------|


 3/4                       4/4
  S S S S S S S S S S S S   S S S S S  S S S S S S S S S S S
|-------------------------|----------------------------------|
|-------------------------|----------------------------------|
|-------------------------|----------------------------------|
|-1-1-1-1-1-1-1-1-1-1-1-1-|-1-1-1-1-1--1-1-1-1-1-1-1-1-1-1-1-|
|
| S S S S H                 S S S S H.
|-------------------------|----------------------------------|
|-------------------------|----------------------------------|
|-------------------------|----------------------------------|
|-------------------------|----------------------------------|
|-8-8-8-8-----------------|-8-8-8-8--------------------------|
|-------------------------|----------------------------------|
|-------------------------|----------------------------------|


 3/4                       4/4
  S S S S S S S S S S S S   S S S S S  S S S S S S S S S S S
|-------------------------|-------------------------------------|
|-------------------------|-------------------------------------|
|-------------------------|-------------------------------------|
|-1-1-1-1-1-1-1-1-1-1-1-1-|-1-1-1-1-1--1-1-1-1-1-1-1-1-1-1-1----|
|
| S S S S H                 S S S S H.
|-------------------------|-------------------------------------|
|-------------------------|-------------------------------------|
|-------------------------|-------------------------------------|
|-------------------------|-------------------------------------|
|-8-8-8-8-----------------|-8-8-8-8-----------------------------|
|-------------------------|-------------------------------------|
|-------------------------|-------------------------------------|


 3/4                           4/4
   S  S  S  S S S S S S S S S    S  S  S  S S  S S S S S S S S S S S
|-----------------------------|--------------------------------------|
|-----------------------------|--------------------------------------|
|--0--0--0--0-0-0-0-0-0-0-0-0-|--0--0--0--0-0--0-0-0-0-0-0-0-0-0-0-0-|
|-----------------------------|--------------------------------------|
|
|  S  S  S  S H                  S  S  S  S H.
|-----------------------------|--------------------------------------|
|-----------------------------|--------------------------------------|
|-----------------------------|--------------------------------------|
|-----------------------------|--------------------------------------|
|-12-12-12-12-----------------|-12-12-12-12--------------------------|
|-----------------------------|--------------------------------------|
|-----------------------------|--------------------------------------|


 3/4                           4/4
   S  S  S  S S S S S S S S S    S  S  S  S S  S S S S S S S S S S S
|-----------------------------|-----------------------------------------|
|-----------------------------|-----------------------------------------|
|--0--0--0--0-0-0-0-0-0-0-0-0-|--0--0--0--0-0--0-0-0-0-0-0-0-0-0-0-0----|
|-----------------------------|-----------------------------------------|
|
|  S  S  S  S H                  S  S  S  S H.
|-----------------------------|-----------------------------------------|
|-----------------------------|-----------------------------------------|
|-----------------------------|-----------------------------------------|
|-----------------------------|-----------------------------------------|
|-12-12-12-12-----------------|-12-12-12-12-----------------------------|
|-----------------------------|-----------------------------------------|
|-----------------------------|-----------------------------------------|


 3/4                       4/4
  S S S S S S S S S S S S   S S S S S  S S S S S S S S S S S
|-------------------------|-----------------------------------|
|-------------------------|-----------------------------------|
|-------------------------|-----------------------------------|
|-1-1-1-1-1-1-1-1-1-1-1-1-|-1-1-1-1-1--1-1-1-1-1-1-1-1-1-1-1--|
|
| S S S S H                 S S S S H.
|-------------------------|-----------------------------------|
|-------------------------|-----------------------------------|
|-------------------------|-----------------------------------|
|-------------------------|-----------------------------------|
|-8-8-8-8-----------------|-8-8-8-8---------------------------|
|-------------------------|-----------------------------------|
|-------------------------|-----------------------------------|


 3/4                       4/4                        2/4
  S S S S S S S S S S S S   S S S S S  S S S E E E E   E E E E
|-------------------------|--------------------------|-----1-4-||
|-------------------------|------------------2-3-2-0-|-2-3-----||
|-------------------------|--------------------------|---------||
|-0-0-0-0-0-0-0-0-0-0-0-0-|-0-0-0-0-0--0-0-0---------|---------||
|
| S S S S H                 S S S S H.                 H
|-------------------------|--------------------------|---------||
|-------------------------|--------------------------|---------||
|-------------------------|--------------------------|---------||
|-------------------------|--------------------------|---------||
|-7-7-7-7-----------------|-7-7-7-7------------------|---------||
|-------------------------|--------------------------|---------||
|-------------------------|--------------------------|---------||


 4/4
  E E E E E E E E   E E E E E E E E   E E E E E E E E   E E E E E E E E
|-----------------|-----------------|-----------------|-----------------|
|-----------------|-----------------|-----------------|-----------------|
|-5-5-5-5-5-5-5-5-|-5-5-5-5-5-5-5-5-|-3-3-3-3-3-3-3-3-|-3-3-3-3-3-3-3-3-|
|-----------------|-----------------|-----------------|-----------------|


  E E E E E E E E   E E E E E E E E   E E E E E E E E   E E E E E E E E
|-----------------|-----------------|-----------------|-----------------|
|-----------------|-----------------|-----------------|---------7-7-7-7-|
|-1-1-1-1-1-1-1-1-|-1-1-1-1-1-1-1-1-|---------4-4-4-4-|-7-7-7-7---------|
|-----------------|-----------------|-5-5-5-5---------|-----------------|


  E E E E E E E E   E E E E Q  E E   E E E E E E E E   E Q  E E E E E
|-----------------|----------------|-----------------|----------------|
|-----------------|-5-7-5-3-5--3-2-|-----------------|---2--3-3-5-3-2-|
|-5-5-5-5-5-5-5-5-|----------------|-3-3-3-3-3-3-3-3-|-3--------------|
|-----------------|----------------|-----------------|----------------|
|
| Gtr II
| W                 H       H        H       H         W
|-----------------|----------------|-----------------|----------------|
|-----------------|----------------|-----------------|----------------|
|-----------------|----------------|-----------------|-0--------------|
|-----------------|-2-------0------|---------2-------|----------------|
|-----------------|----------------|-3---------------|----------------|
|-----------------|----------------|-----------------|----------------|
|-----------------|----------------|-----------------|----------------|


  E E E E E E E E    E  E E E E E E E   E E E E E E E E    E  E E E E E E E
|-----------------|-------------------|-----------------|-------------------||
|-----------------|-------------------|-----------------|-------------------||
|-1-1-1-1-1-1-1-1-|--1--1-1-1-1-1-1-1-|-0-0-0-0-0-0-0-0-|--0--0-0-0-0-0-0-0-||
|-----------------|-------------------|-----------------|-------------------||
|
| W                 +W                  W                 +W
|-----------------|-------------------|-----------------|-------------------||
|-----------------|-------------------|-----------------|-------------------||
|-----------------|-------------------|-----------------|-------------------||
|-0---------------|-(0)---------------|-----------------|-------------------||
|-----------------|-------------------|-4---------------|-(4)---------------||
|-----------------|-------------------|-----------------|-------------------||
|-----------------|-------------------|-----------------|-------------------||


  E E E E E E E E   E E E E E E E E   E E E E E E E E
|-----------------|-----------------|-----------------|
|-----------------|-----------------|-----------------|
|-1-1-1-1-1-1-1-1-|-2-2-2-2-2-2-2-2-|-3-3-3-3-3-3-3-3-|
|-----------------|-----------------|-----------------|
|
| W                 W                 W
|-----------------|-----------------|-----------------|
|-----------------|-----------------|-1---------------|
|-3---------------|-4---------------|-0---------------|
|-3---------------|-5---------------|-2---------------|
|-5---------------|-5---------------|-----------------|
|-----------------|-----------------|-----------------|
|-----------------|-----------------|-----------------|


  E E E E E E E E   E E E E E E E E   E  E E E E E Q
|-----------------|-----------------|------------------||
|-----------------|-----------------|------------------||
|-0-0-0-0-0-0-0-0-|-1-1-1-1-1-1-1-1-|-3--3-3-3-3-3-4---||
|-----------------|-----------------|------------------||
|
| W                 W                 H.           Q
|-----------------|-----------------|-0------------0---||
|-2---------------|-3---------------|-1------------2---||
|-2---------------|-3---------------|-0------------2---||
|-2---------------|-3---------------|------------------||
|-----------------|-----------------|------------------||
|-----------------|-----------------|------------------||
|-----------------|-----------------|------------------||


 3/4
  E E E E E E   E E E E E E   E E E E E E   E E E E E E
|-------------|-------------|-------------|-------------|
|-------------|-------------|-------------|-------------|
|-5---5---5---|-5---5---5---|-5---5---5---|-5---5---5---|
|---5---5---5-|---5---5---5-|---5---5---5-|---5---5---5-|


  E E E E E E   E E E E E E   E E E E E E   E E E E  E  E
|-------------|-------------|-------------|---------------||
|-------------|-------------|-------------|---------------||
|-5---5---5---|-5---5---5---|-5---5---5---|-5---5----5----||
|---5---5---5-|---5---5---5-|---5---5---5-|---5---5-----5-||
|
| Gtr II
| E E E E E E   E E E E E E   E E E E E E   E E E E  E  E
|-1-0-1---0-1-|-3-1-3-0-1-3-|-5-3-5-1-3-5-|-6-5-6-9-10-12-||
|-------3-----|-------------|-------------|-------2--3--5-||
|-------------|-0---0-----0-|-2-0-2---0-2-|-3-2-3---------||
|-3-2-3-0-2-3-|---3---2-3---|-------3-----|---------------||
|-------------|-------------|-------------|---------------||
|-------------|-------------|-------------|---------------||
|-------------|-------------|-------------|---------------||


  Q=121
 4/4
  |3| |3| |3| |-3-|   |3| |3| |3| |3|   |---3---|   |-3-| |---3---|   |-3-|
  Q E Q E Q E E E E   Q E Q E Q E Q E   Q       E   Q   E Q       E   Q   E
|-------------------|-----------------|-------------------------------------|
|-------------------|-----------------|-------------------------------------|
|-1-1-1-1-1-1-1-0-1-|-3-3-3-3-3-3-3-3-|-5-------5---5---5-5-------5---5---5-|
|-------------------|-----------------|-------------------------------------|
|
|                                       |---3---|   |-3-| |---3---|   |-3-|
| W                   W                 E   E   E   E E E E   E   E   E E E
|-------------------|-----------------|-5---3---1---0-1-3-5---3---1---0-1-3-|
|-------------------|-----------------|-------------------------------------|
|-------------------|-----------------|-2---0-----------0-2---0-----------0-|
|-------------------|-----------------|---------3---2-3-----------3---2-3---|
|-------------------|-----------------|-------------------------------------|
|-------------------|-----------------|-------------------------------------|
|-------------------|-----------------|-------------------------------------|
|
| Gtr II
|                                       |----6----|       |----6----|
| W                   W                 S S S S S S Q     S S S S S S Q
|-------------------|-----------------|-------------------------------------|
|-------------------|-----------------|-------------------------------------|
|-------------------|-----------------|-------------------------------------|
|-------------------|-----------------|-------------------------------------|
|-------------------|-----------------|-5-5-5-5-5-5-------5-5-5-5-5-5-------|
|-------------------|-----------------|-------------------------------------|
|-------------------|-----------------|-------------------------------------|


  |---3---|   |-3-| |---3---|   |-3-|
  Q       E   Q   E Q       E   Q   E
|--------------------------------------|
|--------------------------------------|
|-5-------5---5---5-5-------5---5---5--|
|--------------------------------------|
|
| |---3---|   |-3-| |---3---|   |-3-|
| E   E   E   E E E E   E   E   E E E
|-5---3---1---0-1-3-5---3---1---0-1-3--|
|--------------------------------------|
|-2---0-----------0-2---0-----------0--|
|---------3---2-3-----------3---2-3----|
|--------------------------------------|
|--------------------------------------|
|--------------------------------------|
|
| |----6----|       |----6----|
| S S S S S S Q     S S S S S S Q
|--------------------------------------|
|--------------------------------------|
|--------------------------------------|
|--------------------------------------|
|-5-5-5-5-5-5-------5-5-5-5-5-5--------|
|--------------------------------------|
|--------------------------------------|


  |-3-| |-3-| |-3-| |-3-|   |-3-| |-3-| |-3-|  |-3--|
  Q   E Q   E Q   E E E E   Q   E Q   E Q   E  Q    E
|-------------------------|---------------------------||
|-------------------------|---------------------------||
|-1---1-1---1-1---1-1-0-1-|-3---3-3---3-3---3--3----3-||
|-------------------------|---------------------------||
|
| |-3-| |-3-| |-3-| |-3-|   |-3-| |-3-| |-3-|  |-3--|
| E E E E E E E E E E E E   E E E E E E E E E  E E  E
|-------0---0-1-0-1-3-1-3-|-5-3-5-6-5-6-8-6-8-10-8-10-||
|-3-1-3---3---------------|-------------1---1--3-1--3-||
|-------------------0---0-|-2-0-2-3-2-3---3-----------||
|-0---0-2-0-2-3-2-3---3---|---------------------------||
|---3---------------------|---------------------------||
|-------------------------|---------------------------||
|-------------------------|---------------------------||


  Q=176
   W           +H.      E E    H.      Q       W           +W
|-----------|---------------|--------------|-------------|------------|
|-----------|---------------|--------------|-------------|------------|
|--5--------|--(5)------5-3-|--5-----------|---5---------|-(5)--------|
|-----------|---------------|----------5/--|-------------|------------|
|
|  W           +W              W              +W            W
|-12--------|-(12)----------|-13-----------|-(13)--------|-12---------|
|--5--------|--(5)----------|--6-----------|--(6)--------|-13---------|
|-----------|---------------|--------------|-------------|-14---------|
|-----------|---------------|--------------|-------------|------------|
|-----------|---------------|--------------|-------------|------------|
|-----------|---------------|--------------|-------------|------------|
|-----------|---------------|--------------|-------------|------------|


   +H.      Q      Q   E  Q   E  E  E     E   Q.    E  E  E  E
|---------------|---------------------|------------------------||
|-----------7/--|-12-----12-----12----|--10--12----12-10-------||
|--(5)----------|-----12-----12----12-|------------------12-10-||
|---------------|---------------------|------------------------||
|
|  +W              W                     +W
|-(12)----------|-13------------------|-(13)-------------------||
|-(13)----------|-15------------------|-(15)-------------------||
|-(14)----------|-14------------------|-(14)-------------------||
|---------------|---------------------|------------------------||
|---------------|---------------------|------------------------||
|---------------|---------------------|------------------------||
|---------------|---------------------|------------------------||


  E E E E E E E E   E E E E E E E E   E E E E E E E E   E E E E E E E E
|-----------------|-----------------|-----------------|------------------|
|-----------------|-----------------|-----------------|-----------5-7-8--|
|-6-6-6-6-6-6-6-6-|-6-6-6-6-6-6-6-6-|-6-6-6-6-6-6-6-6-|-6-6-6-6-6--------|
|-----------------|-----------------|-----------------|------------------|


  S S S S S  S S S S S S S S S S S   S S S S S S S S S S S S S S S S
|----------------------------------|---------------------------------|
|----------------------------------|---------------------------------|
|-5-5-5-5-5--5-5-5-5-5-5-5-5-5-5-5-|-5-5-5-5-5-5-5-5-5-5-5-5-5-5-5-5-|
|----------------------------------|---------------------------------|
|
| Gtr II
| Q       Q.           E   E   E     W
|-2--------------------2-------3---|---------------------------------|
|----------------------------------|---------------------------------|
|------------------------------0---|---------------------------------|
|-4--------------------4-----------|---------------------------------|
|----------------------------------|---------------------------------|
|----------------------------------|---------------------------------|
|----------------------------------|---------------------------------|


  S S S S S  S S S S S S S S S S S   S S S S S S E E E E E
|----------------------------------|-----------------------|
|----------------------------------|-------------5-7-4-5-7-|
|-5-5-5-5-5--5-5-5-5-5-5-5-5-5-5-5-|-5-5-5-5-5-5-----------|
|----------------------------------|-----------------------|
|
| Q       Q.           E   E   E     E   E   E   E E E E E
|-6--------------------8-------5---|-------------2-3-5-6-8-|
|----------------------1-----------|-----3---4-----------1-|
|-3----------------------------2---|---------------0-2-3---|
|----------------------------------|-----0---1---4---------|
|----------------------------------|-----------------------|
|----------------------------------|-----------------------|
|----------------------------------|-----------------------|


   W           +W               W          +W
|-----------|-----------------|----------|---------------|
|-----------|-----------------|----------|---------------|
|--6--------|--(6)------------|-5--------|-(5)-----------|
|-----------|-----------------|----------|---------------|
|
|  W           +H      Q   Q    W           Q.   Q.   Q
|-10--------|-(10)----15--13--|-8--------|--5----6----8--|
|--3--------|--(3)-----8---6--|-1--------|------------1--|
|-----------|-----------------|----------|--2----3-------|
|-----------|-----------------|----------|---------------|
|-----------|-----------------|----------|---------------|
|-----------|-----------------|----------|---------------|
|-----------|-----------------|----------|---------------|


   W          +W              H     H       H       H
|-----------|---------------|-------------|-----------------|
|-----------|---------------|-------------|-----------------|
|--6--------|-(6)-----------|-8-----8-----|-9-------9-------|
|-----------|---------------|-------------|-----------------|
|
|  W           Q.   Q.   Q    H.       Q    Q.   Q.    Q
|-10--------|--3----5----6--|-8--------6--|-5----6-----8----|
|--3--------|---------------|-1-----------|------------1----|
|-----------|--0----2----3--|----------3--|-2----3----------|
|-----------|---------------|-------------|-----------------|
|-----------|---------------|-------------|-----------------|
|-----------|---------------|-------------|-----------------|
|-----------|---------------|-------------|-----------------|


   Q     E   Q.         Q      Q     E   Q.         Q
|---------------------------|---------------------------|
|---------------------------|---------------------------|
|---------------------------|---------------------------|
|--3---------3--------------|--3---------3--------------|
|
|  Q     E   Q       E  E E    Q     E   Q       E  E E
|-10---------8------11-10-8-|-10---------8------11-10-8-|
|--3---------1-------4--3-1-|--3---------1-------4--3-1-|
|----0-0-0-0-0--(0)---------|----0-0-0-0-0--(0)---------|
|---------------------------|---------------------------|
|---------------------------|---------------------------|
|---------------------------|---------------------------|
|---------------------------|---------------------------|
   E S S S S E  +Q      Q      E S S S S E  +Q      Q


   Q     E   Q.         Q      Q     E   Q.         Q
|---------------------------|---------------------------|
|---------------------------|---------------------------|
|---------------------------|---------------------------|
|--3---------3--------------|--3---------3--------------|
|
|  Q     E   Q       E  E E    Q     E   Q       E  E E
|-10---------8------11-10-8-|-10---------8------11-10-8-|
|--3---------1-------4--3-1-|--3---------1-------4--3-1-|
|----0-0-0-0-0--(0)---------|----0-0-0-0-0--(0)---------|
|---------------------------|---------------------------|
|---------------------------|---------------------------|
|---------------------------|---------------------------|
|---------------------------|---------------------------|
   E S S S S E  +Q      Q      E S S S S E  +Q      Q


   Q     E   Q.         Q      Q     E   Q.         Q
|---------------------------|---------------------------|
|---------------------------|---------------------------|
|---------------------------|---------------------------|
|--3---------3--------------|--3---------3--------------|
|
|  Q     E   Q       E  E E    Q     E   Q       E  E E
|-10---------8------11-10-8-|-10---------8------11-10-8-|
|--3---------1-------4--3-1-|--3---------1-------4--3-1-|
|----0-0-0-0-0--(0)---------|----0-0-0-0-0--(0)---------|
|---------------------------|---------------------------|
|---------------------------|---------------------------|
|---------------------------|---------------------------|
|---------------------------|---------------------------|
   E S S S S E  +Q      Q      E S S S S E  +Q      Q


   Q     E   Q.         Q      Q     E   Q.         Q
|---------------------------|---------------------------||
|---------------------------|---------------------------||
|---------------------------|---------------------------||
|--3---------3--------------|--3---------3--------------||
|
|  Q     E   Q       E  E E    Q     E   Q       E  E E
|-10---------8------11-10-8-|-10---------8------11-10-8-||
|--3---------1-------4--3-1-|--3---------1-------4--3-1-||
|----0-0-0-0-0--(0)---------|----0-0-0-0-0--(0)---------||
|---------------------------|---------------------------||
|---------------------------|---------------------------||
|---------------------------|---------------------------||
|---------------------------|---------------------------||
   E S S S S E  +Q      Q      E S S S S E  +Q      Q


  E E E E E E E E   E E E E E E E E   E E E E E E E E   E E E E E E E E
|-----------------|-----------------|-----------------|------------------|
|-----------------|-----------------|-----------------|------------------|
|-----------------|-----------------|-----------------|------------------|
|-4-4-4-4-4-4-4-4-|-6-6-6-6-6-6-6-6-|-7-7-7-7-7-7-7-7-|-8-8-8-8-8-8-8-8--|


  E E E E E E E E   E E E E E E E E   E E E E E E E E
|-----------------|-----------------|-----------------|
|-----------------|-----------------|-----------------|
|-----------------|-----------------|-----------------|
|-4-4-4-4-4-4-4-4-|-5-5-5-5-5-5-5-5-|-6-6-6-6-6-6-6-6-|
|
| Gtr II
| E E E E E E E E   E E E E E E E E   E E E E E E E E
|-----------------|-----------------|---------1-----1-|
|-1-----1-4-3-1-4-|-1-----1-4-3-1-4-|-3-----3---4-3---|
|-----1-----------|-----1-----------|-----3-----------|
|---1-----1-0---1-|---3-----1-0---1-|-0-3---0-3-1-0-3-|
|-3-----3-----3---|-3-----3-----3---|-----1-----------|
|-----4-----------|---1-4-----------|---1-------------|
|---4-------------|-----------------|-----------------|


  E E E E E E E E   E E E E E E E E
|-----------------|-------------------|
|-----------------|-------------------|
|-----------------|-------------------|
|-7-7-7-7-7-7-7-7-|-4-4-4-4-4-4-4-4---|
|
| E E E E E E E E   W
|-3-----3-7---3-7-|-8-----------------|
|-----3-----3-----|-1-----------------|
|-0-4---0-4---0-4-|-------------------|
|-----0-----0-----|-------------------|
|---2-------------|-------------------|
|-----------------|-------------------|
|-----------------|-------------------|


  E E E E E E E E    E E E E E E E E   E E E E E E E E
|-----------------|------------------|-----------------|
|-----------------|------------------|-----------------|
|-----------------|------------------|-----------------|
|-6-6-6-6-6-6-6-6-|--7-7-7-7-7-7-7-7-|-8-8-8-8-8-8-8-8-|
|
| W                  W                 W
|-6---------------|-10---------------|-8---------------|
|-----------------|--3---------------|-1---------------|
|-3---------------|------------------|-----------------|
|-----------------|------------------|-----------------|
|-----------------|------------------|-----------------|
|-----------------|------------------|-----------------|
|-----------------|------------------|-----------------|


  E E E E E E E E   E E E E  E E  E  E
|-----------------|----------------------||
|-----------------|----------------------||
|-----------------|----------------------||
|-4-4-4-4-4-4-4-4-|-6-6-6-6--6-6--6--6---||
|
| E E E E E E E E   E E E E  E E  E  E
|-------1-3-1-3-4-|-6-4-6-8-10-8-10-13---||
|-4-3-4-----------|----------3-1--3--6---||
|---------0---0-1-|-3-1-3-5--------------||
|-1-0-1-3---3-----|----------------------||
|-----------------|----------------------||
|-----------------|----------------------||
|-----------------|----------------------||


 6/4
   E E E E E E E E E E E E   E E E E E E E E E E E E
|--------------------------|-------------------------|
|--------------------------|-------------------------|
|--3-3-3-3-3-3-3-3-3-3-3-3-|-5-5-5-5-5-5-5-5-6-6-6-6-|
|--------------------------|-------------------------|
|
|  Q   W               Q     W
|-11-----------------------|-------------------------|
|--4-----------------------|-------------------------|
|--------------------------|-------------------------|
|--------------------------|-------------------------|
|--------------------------|-------------------------|
|--------------------------|-------------------------|
|--------------------------|-------------------------|


  E E E E E E E E E E E E   E E E E E E E E E E E E
|-------------------------|-------------------------|
|-------------------------|-------------------------|
|-5-5-5-5-5-5-5-5-5-5-5-5-|-5-5-5-5-5-5-5-5-5-5-5-5-|
|-------------------------|-------------------------|
|
| W                         W
|-------------------------|-------------------------|
|-------------------------|-------------------------|
|-------------------------|-------------------------|
|-------------------------|-------------------------|
|-------------------------|-------------------------|
|-------------------------|-------------------------|
|-------------------------|-------------------------|


  E E E E E E E E E E E E   E E E E E E E E E E E E
|-------------------------|-------------------------|
|-------------------------|-------------------------|
|-------------------------|-------------------------|
|-3-3-3-3-3-3-3-3-3-3-3-3-|-5-5-5-5-5-5-5-5-6-6-6-6-|
|
| E E E E E E E E E E E E   E E E E E E E E E E E E
|-------------------------|-----------------1-----1-|
|-3-----1-3-----1-3---1-3-|-5---1-3-5-1-3-5---3-5---|
|---2-3-----2-3-----3-----|---4---------------------|
|-0-------0-------0-----0-|-2-----0-2---0-2-3-0-2-3-|
|---0-1-3---0-1-3---1-3---|---2-3-----3-------------|
|-------------------------|-------------------------|
|-------------------------|-------------------------|


  E E E E E E E E E E E E   E E E E E E E E E E E E
|-------------------------|----------------------------||
|-------------------------|----------------------------||
|-------------------------|----------------------------||
|-5-5-5-5-5-5-5-5-5-5-5-5-|-5-5-5-5-5-5-5-5-5-5-5-5----||
|
| W                         W
|-------------------------|----------------------------||
|-------------------------|----------------------------||
|-------------------------|----------------------------||
|-------------------------|----------------------------||
|-------------------------|----------------------------||
|-------------------------|----------------------------||
|-------------------------|----------------------------||


  E  E E E E E E E E E E E   E  E E E E E E E E E E E
|--------------------------|--------------------------|
|--------------------------|--------------------------|
|-5--5-5-5-5-5-5-5-5-5-5-5-|-6--6-6-6-6-6-6-6-6-6-6-6-|
|--------------------------|--------------------------|
|
| W.                         W.
|-5------------------------|-6------------------------|
|--------------------------|--------------------------|
|-2------------------------|-3------------------------|
|--------------------------|--------------------------|
|--------------------------|--------------------------|
|--------------------------|--------------------------|
|--------------------------|--------------------------|


  E  E E E E E E E E E E E    E  E E E E E E E E E E E
|--------------------------|------------------------------|
|--------------------------|------------------------------|
|-7--7-7-7-7-7-7-7-7-7-7-7-|--8--8-8-8-8-8-8-8-8-8-8-8----|
|--------------------------|------------------------------|
|
| W.                         +W.
|-8------------------------|-(8)--------------------------|
|-1------------------------|-(1)--------------------------|
|--------------------------|------------------------------|
|--------------------------|------------------------------|
|--------------------------|------------------------------|
|--------------------------|------------------------------|
|--------------------------|------------------------------|


   E  E E E E E E E E E E E     E   E  E  E  E  E  E  E  E  E  E  E
|---------------------------|---------------------------------------|
|---------------------------|---------------------------------------|
|--9--9-9-9-9-9-9-9-9-9-9-9-|--10--10-10-10-10-10-10-10-10-10-10-10-|
|---------------------------|---------------------------------------|
|
|  W.                          +W.
|-10------------------------|-(10)----------------------------------|
|--3------------------------|--(3)----------------------------------|
|---------------------------|---------------------------------------|
|---------------------------|---------------------------------------|
|---------------------------|---------------------------------------|
|---------------------------|---------------------------------------|
|---------------------------|---------------------------------------|


   E  E E E E E E E E E E E    E  E E E E E E E E E E E
|---------------------------|------------------------------|
|---------------------------|------------------------------|
|---------------------------|------------------------------|
|--4--4-4-4-4-4-4-4-4-4-4-4-|--6--6-6-6-6-6-6-6-6-6-6-6----|
|
|  W.                          W.
|-11------------------------|-10---------------------------|
|--4------------------------|--3---------------------------|
|---------------------------|------------------------------|
|---------------------------|------------------------------|
|---------------------------|------------------------------|
|---------------------------|------------------------------|
|---------------------------|------------------------------|


 4/4
   E E E E E E E E    E E E E E E E E
|------------------|------------------||
|------------------|------------------||
|------------------|------------------||
|--4-4-4-4-4-4-4-4-|--6-6-6-6-6-6-6-6-||
|
|  W                  W
|-11---------------|-10---------------||
|--4---------------|--3---------------||
|------------------|------------------||
|------------------|------------------||
|------------------|------------------||
|------------------|------------------||
|------------------|------------------||


 A Glimpse of Hope (12:42)
  Q=82
  H               H                 H               H
|---------------------------------|---------------------------------|
|---------------------------------|---------------------------------|
|-3---------------2---------------|-0-------------------------------|
|---------------------------------|-----------------0---------------|
|
| S S S S S S S S S S S S S S S S   S S S S S S S S S S S S S S S S
|-0-------0-------0-------0-------|-0-------0-------------0-3-0-----|
|---3-1-----3-1-----3-0-----3-0---|---3-1-----3-1---0---0-------0---|
|-------0-------0-------0-------0-|-------0-------0---0-----0-----0-|
|-2-0-----2-0-----2-0-2---2-0-2---|-2-0-----2-0-----------2---2-----|
|-----3-------3---------3-------3-|-----3-0-----3-0-2---2-------2---|
|-------3-------3-----------------|-------------------3-----------3-|
|---------------------------------|---------------------------------|


  W                                 W
|---------------------------------|---------------------------------|
|---------------------------------|---------------------------------|
|---------------------------------|---------------------------------|
|-1-------------------------------|-3-------------------------------|
|
| S S S S S S S S S S S S S S S S   S S S S S S S S S S S S S S S S
|-5-1-----5-1-----5-1-----5-1-----|-7-3-----7-3-----7-3-----7-3-----|
|-----1-------1-------1-------1---|-0---3-0-0---3-0-0---3-0-0---3-0-|
|-2-----2-2-----2-2-----2-2-----2-|---0-------0-------0-------0-----|
|---3-------3-------3-------3-----|-----0-------0-------0-------0---|
|-----3-0-----3-0-----3-0-----3-0-|-------2-------2-------2-------2-|
|---------------------------------|---------------------------------|
|---------------------------------|---------------------------------|


  H               H                   H                H
|-----------------------------------|-------------------------------------|
|-----------------------------------|-------------------------------------|
|-3---------------2-----------------|-0-----------------------------------|
|-----------------------------------|------------------0------------------|
|
| S S S S S S S S S S S S  S S S  S   S S S S S S S S  S S S  S  S  S S S
|-8-3-0-5-8-5-0---7-0-3-7-12-7-7-10-|-8-5-1-5-8-1-5-8-12-7-8-12-12--8-3-0-|
|-1-1---1-1-8---1-0-8-3-8--3-8-8--5-|-1-1-5-1---5---1--5-8-8-12--5-12-----|
|---0-------0-------0---0----0-4--7-|---2-----2---2------4-0--4-----9-0---|
|-----2-------2-------0----0--------|-----2-----2-----------------------2-|
|-------3-------3-------------------|-------3-0---------------------------|
|-----------------------------------|-------------------------------------|
|-----------------------------------|-------------------------------------|


  W
|--------------------------------------|
|--------------------------------------|
|--------------------------------------|
|-1------------------------------------|
|
| S S S S  S S S  S  S  S  S S S S S S
|-----1-5-10-1-5-10-13-12-10-5-1---1-5-|
|-1-3---1--6---1--6--6-----6-----3-----|
|-----2------2----------2----2---2---2-|
|---3------3------3--3-----3---3---3---|
|-3---0-3----0-3--------0----0---0---0-|
|---1----------------------------------|
|--------------------------------------|


  W
|---------------------------------------||
|---------------------------------------||
|---------------------------------------||
|-3-------------------------------------||
|
| S S S S  S  S S  S  S  S S  S S S S S
|-3-0-3-7-12-15-7-12-12-15-7-12-3-0-3-7-||
|---0-3-8--8--0-3--8--8--0-3--8---0---0-||
|-0-----0--0-------0--0-------0-0---0---||
|-----0---------0----------0------------||
|---2---------2----------2--------2---2-||
|---------------------------------------||
|---------------------------------------||


  H    H      H    H      Q  Q    H
|-----------|-----------|--------------||
|-----------|-----------|----6/--15----||
|-----------|-6---------|--------13----||
|-4----6----|------3----|-4------------||


 Hope (13:15)
  Gtr II
                                                             \0.5/
                         |-3-|
  H       H         H    Q Q Q    H     H         H      H
|-----------------|-------------|---------------|---------------------|
|-----------------|-------------|---------------|---------------------|
|-----------------|----------0--|---------------|---------------------|
|-----------------|-1----1-3----|-1----(1)------|-1------0------------|
|-1------(1)------|-1----1------|-1-------------|-1-------------------|
|-----------------|------3------|-4----(4)------|-4-----(4)-----------|
|-4-------3-------|-1-----------|-------9-------|------------0--------|
|                   H    H                        H.         Q
|
| Gtr II
|                        |-3-|
| Q.   E  Q   E E   H    Q Q Q    H    +E  Q  E   H.         E     E
|-----------------|-------------|---------------|---------------------|
|-----------------|------4-3-4--|-1----(1)------|---------------------|
|-0----0--3---0---|-0-----------|----------3----|------------0--------|
|---------------3-|-------------|-------------1-|-3----------------3--|
|-----------------|-------------|---------------|---------------------|
|-----------------|-------------|---------------|---------------------|
|-----------------|-------------|---------------|---------------------|


                                                   \0.5/    \2/
                         |-3-|
  H       H         H    Q Q Q    H      H         H        Q     Q
|-----------------|-------------|----------------|---------------------||
|-----------------|-------------|----------------|---------------------||
|-----------------|----------0--|----------------|---------------------||
|-----------------|-1----1-3----|-1-----(1)------|-3--------1-----0----||
|-1------(1)------|-1----1------|-1--------------|-5--------2----(2)---||
|-----------------|------3------|-4-----(4)------|---------------------||
|-4-------3-------|-1-----------|--------9-------|-0--------0----------||
|                   H    H                         H        H
|
|                        |-3-|
| Q.   E  Q   E E   H    Q Q Q    H.         E E   H        Q     Q
|-----------------|-------------|----------------|----------------1----||
|-----------------|------4-3-4--|-1------------1-|-3--------4----------||
|-0----0--3---0---|-0-----------|------------3---|---------------------||
|---------------3-|-------------|----------------|---------------------||
|-----------------|-------------|----------------|---------------------||
|-----------------|-------------|----------------|---------------------||
|-----------------|-------------|----------------|---------------------||


  S S S S S S S S S S S S S S S S   S S S S S S S S S S S S S S S S
|---------------------------------|-2-------2-------2-------2--------|
|-4-3-1---4-3-1---4-3-1---4-3-1---|---3-------3-------3-------3------|
|-------0-------0-------0-------0-|-----2-------2-------2-------2----|
|---------------------------------|-------4-------4-------4-------4--|
|-3-------------------------------|-5--------------------------------|
|---------------------------------|----------------------------------|
|---------------------------------|----------------------------------|
  W                                 W


  S  S S S S S S S S S S S  S  S S S   S S S S S S S S S S S S S S S S
|------------------------------------|-2-------2-------2-------2--------|
|-4--3-1---4-3-1---4-3-1----4--3-1---|---3-------3-------3-------3------|
|--------0-------0-------0---------0-|-----2-------2-------2-------2----|
|------------------------------------|-------4-------4-------4-------4--|
|-3----------------------------------|-5--------------------------------|
|------------------------------------|----------------------------------|
|------------------------------------|----------------------------------|
| W                                    W
|
| Gtr II
| H.                       +E    E     H               Q       Q
|------------------------------------|----------------------------------|
|------------------------------------|-------------------------1--------|
|-0------------------------(0)---3---|-2---------------3----------------|
|-1------------------------(1)---5---|-4--------------------------------|
|------------------------------------|----------------------------------|
|------------------------------------|----------------------------------|
|------------------------------------|----------------------------------|


  S S S S S S S S S S S S S S S S    S S S S  S S S S  S S S S  S S S S
|-3-1-----3-1-----3-1-----3-1-----|--1-2------1-2------1-2------1-2------|
|-----1-1-----1-1-----1-1-----1-1-|-10-3-1---10-3-1---10-3-1---10-3-1----|
|-----8-0-----8-0-----8-0-----8-0-|------2-2------2-2------2-2------2-2--|
|---------------------------------|--------4--------4--------4--------4--|
|-3-------------------------------|--5-----------------------------------|
|---------------------------------|--------------------------------------|
|---------------------------------|--------------------------------------|
| W                                  W
|
| H               Q       Q          H                 Q        Q
|---------------------------------|--------------------------------------|
|---------------------------------|--------------------------------------|
|---------------------------------|--------------------------------------|
|---------------------------------|--------------------------------------|
|---------------------------------|--------------------1--------3--------|
|-------------------------3-------|--5-----------------------------------|
|-1---------------4---------------|--------------------------------------|


  S  S S S S S S S S S S S S S S S    S S S S  S S S S  S S S S  S S S S
|-3--1-----3-1-----3-1-----3-1-----|--1-2------1-2------1-2------1-2------|
|------1-1-----1-1-----1-1-----1-1-|-10-3-1---10-3-1---10-3-1---10-3-1----|
|------8-0-----8-0-----8-0-----8-0-|------2-2------2-2------2-2------2-2--|
|----------------------------------|--------4--------4--------4--------4--|
|-3--------------------------------|--5-----------------------------------|
|----------------------------------|--------------------------------------|
|----------------------------------|--------------------------------------|
| W                                   W
|
| H.                       Q          W
|----------------------------------|--------------------------------------|
|----------------------------------|--------------------------------------|
|----------------------------------|--------------------------------------|
|----------------------------------|--------------------------------------|
|-3------------------------1-------|--------------------------------------|
|----------------------------------|--5-----------------------------------|
|----------------------------------|--------------------------------------|


  Gtr I
  W                                 +W
|---------------------------------|------------------------------------||
|---------------------------------|------------------------------------||
|---------------------------------|------------------------------------||
|-0-------------------------------|-(0)--------------------------------||
|
| Gtr II
| S S S S S S S S S S S S S S S S    S  S S S S S S S S S S S S S S S
|-7-4-----7-4-----7-4-----7-4-----|--7--4-----7-4-----7-4-----7-4------||
|-9-5-5---9-5-5---9-5-5---9-5-5---|--9--5-5---9-5-5---9-5-5---9-5-5----||
|-----4-4-----4-4-----4-4-----4-4-|-------4-4-----4-4-----4-4-----4-4--||
|-------6-------6-------6-------6-|---------6-------6-------6-------6--||
|-2-------------------------------|--2---------------------------------||
|-0-------------------------------|--0---------------------------------||
|---------------------------------|------------------------------------||
  W                                  W


  Q  S S S S Q  S S S S   H    Q  Q    Q  S S S S H      Q  Q  Q  Q
|-----------------------|------------|-----------------|---------------|
|-----------------------|------------|-----------------|-------2-------|
|-0--0------------------|------3-----|-----------------|-3--3-----3----|
|------3-1-0-1--1-0-1-2-|-3-------0--|-1--1-0-1-2-3----|---------------|
|
| H          H            H    H       H          H      H     H
|-0----------5----------|-7----8-----|-5----------7----|-3-----4-------|
|-----------------------|-0----1-----|------------0----|---------------|
|------------2----------|------------|-2---------------|-0-----1-------|
|-2---------------------|------------|-----------------|---------------|
|-----------------------|------------|-----------------|---------------|
|-----------------------|------------|-----------------|---------------|
|-----------------------|------------|-----------------|---------------|


  Q  S S S S Q.   E   H    Q  S S E     Q  E E S S E E E   Q  Q  Q  Q
|-------------------|-----------------|------------------|--------------||
|-------------------|-----------------|----3---------3---|----5--6------||
|-------------------|---------0-2-3---|------------------|--------------||
|-1--1-0-1-2-3----3-|-4----5----------|-1----1-1-0-1---1-|-3--------7---||
|
| H          H        H    Q  S S S S   H      Q     Q     H     Q  Q
|-5----------7------|-7----8--8-7-0---|--------1-----5---|-------0--7---||
|------------0------|-0----1--1-0---3-|-1----------------|-3--------0---||
|-2-----------------|-----------------|--------------2---|--------------||
|-------------------|-------------2-0-|--------3---------|-0-----2------||
|-------------------|-----------------|-3----------------|--------------||
|-------------------|-----------------|------------------|--------------||
|-------------------|-----------------|------------------|--------------||


  Q  S S S S Q  S S S S   H    Q  Q    Q  S S S S E Q  E   Q  +S  E S  H
|-----------------------|------------|-------------------|--------5-4--3----|
|-----------------------|------------|-------------------|------------------|
|-0--0------------------|------3-----|-------------------|-3--(3)-----------|
|------3-1-0-1--1-0-1-2-|-3-------0--|-1--1-0-1-2-3-3--3-|------------------|
|
| W                       H    H       H          H        H           H
|-8---------------------|-7----8-----|-5----------7------|-8----------15----|
|-1---------------------|-0----1-----|------------0------|-1-----------8----|
|-----------------------|------------|-2-----------------|------------------|
|-----------------------|------------|-------------------|------------------|
|-----------------------|------------|-------------------|------------------|
|-----------------------|------------|-------------------|------------------|
|-----------------------|------------|-------------------|------------------|


   H     Q   Q     H       Q  S S E    Q  E E. S E E E
|---------------|-------------------|------------------|
|---------------|-------------------|-----3-3------3---|
|--0------------|----------0--0-2-3-|------------------|
|--------3---1--|--0----------------|--1-------1-1---1-|
|
|  H     Q   Q     Q   Q   H           W
|-13----10--15--|-16--19--17--------|-17---------------|
|--6-----3---8--|--9--12--10--------|-10---------------|
|---------------|-------------------|------------------|
|---------------|-------------------|------------------|
|---------------|-------------------|------------------|
|---------------|-------------------|------------------|
|---------------|-------------------|------------------|


                                         1/4
   H    H       W           +H     H        W
|------------|-----------|--------------|-------||
|------------|-----------|--------------|-------||
|------------|-----------|--------------|-------||
|--3----4----|--5--------|--(5)---------|-------||
|
|  W            W           +W             +Q
|-19---------|-17--------|-(17)---------|-(17)--||
|-12---------|-----------|--------------|-------||
|------------|-----------|--------------|-------||
|------------|-----------|--------------|-------||
|------------|-----------|--------------|-------||
|------------|-----------|--------------|-------||
|------------|-----------|--------------|-------||


 Internal Conflict (15:07)
 4/4
  Gtr II
   +W            +W            +W            +W           Wx8
|-(17)--------|-(17)--------|-(17)--------|-(17)--------|--------|
|-------------|-------------|-------------|-------------|--------|
|-------------|-------------|-------------|-------------|--------|
|-------------|-------------|-------------|-------------|--------|
|-------------|-------------|-------------|-------------|--------|
|-------------|-------------|-------------|-------------|--------|
|-------------|-------------|-------------|-------------|--------|


  Gtr I
  Q.   E  Q   +S  S S  S    H.       +S  S S S
|-2----9-14--(14)-2-9-14-|-14-------(14)-2-5-2-|
|------------------------|---------------------|
|------------------------|---------------------|
|------------------------|---------------------|


  Q.   E  Q   +S  S S S    H.       +S  S S  S
|------5-10--(10)---2-5-|-10-------(10)---5-10--|
|-3---------------3-----|---------------3-------|
|-----------------------|-----------------------|
|-----------------------|-----------------------|


   Q.    E  Q   +S   S  S  S    Q.    E  Q   +S   S  S  S
|-14----21-26--(26)-14-17-21-|-26----21-26--(26)-14-17-14-|
|----------------------------|----------------------------|
|----------------------------|----------------------------|
|----------------------------|----------------------------|


   Q.    E  Q   +S   S  S  S    Q.    E  Q   +S   S  S  S
|-10----17-22--(22)-10-14-17-|-22----17-22--(22)-10-17-22--|
|----------------------------|-----------------------------|
|----------------------------|-----------------------------|
|----------------------------|-----------------------------|


  Q.   E  Q   +S  S S S    H.       +S  S S S
|-2----9-14--(14)-2-5-9-|-14-------(14)-2-5-9-|
|-----------------------|---------------------|
|-----------------------|---------------------|
|-----------------------|---------------------|


  Q.   E  Q   +S  S S S    H.       +S  S S S
|------5-10--(10)---2-5-|-10-------(10)---2-5--|
|-3---------------3-----|---------------3------|
|-----------------------|----------------------|
|-----------------------|----------------------|


  Q.   E  Q   +S  S S S    H.       +S  S S S
|-2----9-14--(14)-2-5-9-|-14-------(14)-2-5-9-|
|-----------------------|---------------------|
|-----------------------|---------------------|
|-----------------------|---------------------|


  Q.   E  Q   +S  S S S    H.       +S  S S  S
|------5-10--(10)---2-5-|-10-------(10)---5-10--|
|-3---------------3-----|---------------3-------|
|-----------------------|-----------------------|
|-----------------------|-----------------------|


   S S  S S  S S  S S  S S  S S  S S  S S
|-14-2-14-2-14-2-14-2-14-2-14-2-14-2-14-2-|
|-----------------------------------------|
|-----------------------------------------|
|-----------------------------------------|


   S S  S S  S S  S S  S S  S S  S S  S S
|-14-2-14-2-14-2-14-2-14-2-14-2-14-2-14-2-|
|-----------------------------------------|
|-----------------------------------------|
|-----------------------------------------|


   S S  S S  S S  S S  S S  S S  S S  S S
|-10---10---10---10---10---10---10---10---|
|----3----3----3----3----3----3----3----3-|
|-----------------------------------------|
|-----------------------------------------|


   S S  S S  S S  S S  S S  S S  S S  S S
|-10---10---10---10---10---10---10---10---|
|----3----3----3----3----3----3----3----3-|
|-----------------------------------------|
|-----------------------------------------|


   S S  S S  S S  S S  S S  S S  S S  S S
|-14-2-14-2-14-2-14-2-14-2-14-2-14-2-14-2-|
|-----------------------------------------|
|-----------------------------------------|
|-----------------------------------------|


   S S  S S  S S  S S  S S  S S  S S  S S
|-14-2-14-2-14-2-14-2-14-2-14-2-14-2-14-2-|
|-----------------------------------------|
|-----------------------------------------|
|-----------------------------------------|


   S S  S S  S S  S S  S S  S S  S S  S S
|-10---10---10---10---10---10---10---10---|
|----3----3----3----3----3----3----3----3-|
|-----------------------------------------|
|-----------------------------------------|


   S S  S S  S S  S S  S S  S S  S S  S S
|-10---10---10---10---10---10---10---10---||
|----3----3----3----3----3----3----3----3-||
|-----------------------------------------||
|-----------------------------------------||


  Wx4          Q.   E  Q   +S  S S S    Q.    Q   E  +S  S S S
|------------|-2----9-14--(14)-2-5-9-|-14--------14-(14)-2-5-9-|
|------------|-----------------------|-------14----------------|
|------------|-----------------------|-------------------------|
|------------|-----------------------|-------------------------|


  Q.   E  Q   +S  S S S    H.       +S  S S  S
|------5-10--(10)---2-5-|-10-------(10)---5-10---||
|-3---------------3-----|---------------3--------||
|-----------------------|------------------------||
|-----------------------|------------------------||


   S S  S S  S S  S S  S S  S S  S S  S S
|-14-2-14-2-14-2-14-2-14-2-14-2-14-2-14-2-|
|-----------------------------------------|
|-----------------------------------------|
|-----------------------------------------|


   S S  S S  S S  S S  S S  S S  S S  S S
|-14-2-14-2-14-2-14-2-14-2-14-2-14-2-14-2-|
|-----------------------------------------|
|-----------------------------------------|
|-----------------------------------------|


   S S  S S  S S  S S  S S  S S  S S  S S
|-10---10---10---10---10---10---10---10---|
|----3----3----3----3----3----3----3----3-|
|-----------------------------------------|
|-----------------------------------------|


   S S  S S  S S  S S  S S  S S  S S  S S
|-10---10---10---10---10---10---10---10---|
|----3----3----3----3----3----3----3----3-|
|-----------------------------------------|
|-----------------------------------------|


   S S  S S  S S  S S  S S  S S  S S  S S
|-14-2-14-2-14-2-14-2-14-2-14-2-14-2-14-2-|
|-----------------------------------------|
|-----------------------------------------|
|-----------------------------------------|


   S S  S S  S S  S S  S S  S S  S S  S S
|-14-2-14-2-14-2-14-2-14-2-14-2-14-2-14-2-|
|-----------------------------------------|
|-----------------------------------------|
|-----------------------------------------|


   S S  S S  S S  S S  S S  S S  S S  S S
|-10---10---10---10---10---10---10---10---|
|----3----3----3----3----3----3----3----3-|
|-----------------------------------------|
|-----------------------------------------|


   S S  S S  S S  S S  S S  S S  S S  S S
|-10---10---10---10---10---10---10---10---|
|----3----3----3----3----3----3----3----3-|
|-----------------------------------------|
|-----------------------------------------|


   S S  S S  S S  S S  S S  S S  S S  S S
|-14-2-14-2-14-2-14-2-14-2-14-2-14-2-14-2-|
|-----------------------------------------|
|-----------------------------------------|
|-----------------------------------------|


   S S  S S  S S  S S  S S  S S  S S  S S
|-14-2-14-2-14-2-14-2-14-2-14-2-14-2-14-2-|
|-----------------------------------------|
|-----------------------------------------|
|-----------------------------------------|


   S S  S S  S S  S S  S S  S S  S S  S S
|-10---10---10---10---10---10---10---10---|
|----3----3----3----3----3----3----3----3-|
|-----------------------------------------|
|-----------------------------------------|


   S S  S S  S S  S S  S S  S S  S S  S S
|-10---10---10---10---10---10---10---10---|
|----3----3----3----3----3----3----3----3-|
|-----------------------------------------|
|-----------------------------------------|


   S S  S S  S S  S S  S S  S S  S S  S S
|-14-2-14-2-14-2-14-2-14-2-14-2-14-2-14-2-|
|-----------------------------------------|
|-----------------------------------------|
|-----------------------------------------|


   S S  S S  S S  S S  S S  S S  S S  S S
|-14-2-14-2-14-2-14-2-14-2-14-2-14-2-14-2-|
|-----------------------------------------|
|-----------------------------------------|
|-----------------------------------------|


   S S  S S  S S  S S  S S  S S  S S  S S
|-10---10---10---10---10---10---10---10---|
|----3----3----3----3----3----3----3----3-|
|-----------------------------------------|
|-----------------------------------------|


   S S  S S  S S  S S  S S  S S  S S  S S
|-10---10---10---10---10---10---10---10---|
|----3----3----3----3----3----3----3----3-|
|-----------------------------------------|
|-----------------------------------------|


   S S  S S  S S  S S  S S  S S  S S  S S
|-14-2-14-2-14-2-14-2-14-2-14-2-14-2-14-2-|
|-----------------------------------------|
|-----------------------------------------|
|-----------------------------------------|


   S S  S S  S S  S S  S S  S S  S S  S S
|-14-2-14-2-14-2-14-2-14-2-14-2-14-2-14-2-|
|-----------------------------------------|
|-----------------------------------------|
|-----------------------------------------|


   S S  S S  S S  S S  S S  S S  S S  S S
|-10---10---10---10---10---10---10---10---|
|----3----3----3----3----3----3----3----3-|
|-----------------------------------------|
|-----------------------------------------|


   S S  S S  S S  S S  S S  S S  S S  S S
|-10---10---10---10---10---10---10---10---|
|----3----3----3----3----3----3----3----3-|
|-----------------------------------------|
|-----------------------------------------|


   S S  S S  S S  S S  S S  S S  S S  S S
|-14-2-14-2-14-2-14-2-14-2-14-2-14-2-14-2-|
|-----------------------------------------|
|-----------------------------------------|
|-----------------------------------------|


   S S  S S  S S  S S  S S  S S  S S  S S
|-14-2-14-2-14-2-14-2-14-2-14-2-14-2-14-2-|
|-----------------------------------------|
|-----------------------------------------|
|-----------------------------------------|


   S S  S S  S S  S S  S S  S S  S S  S S
|-10---10---10---10---10---10---10---10---|
|----3----3----3----3----3----3----3----3-|
|-----------------------------------------|
|-----------------------------------------|


   S S  S S  S S  S S  S S  S S  S S  S S
|-10---10---10---10---10---10---10---10---|
|----3----3----3----3----3----3----3----3-|
|-----------------------------------------|
|-----------------------------------------|


   S S  S S  S S  S S  S S  S S  S S  S S
|-14-2-14-2-14-2-14-2-14-2-14-2-14-2-14-2-|
|-----------------------------------------|
|-----------------------------------------|
|-----------------------------------------|


   S S  S S  S S  S S  S S  S S  S S  S S
|-14-2-14-2-14-2-14-2-14-2-14-2-14-2-14-2-|
|-----------------------------------------|
|-----------------------------------------|
|-----------------------------------------|


   S S  S S  S S  S S  S S  S S  S S  S S
|-10---10---10---10---10---10---10---10---|
|----3----3----3----3----3----3----3----3-|
|-----------------------------------------|
|-----------------------------------------|


   S S  S S  S S  S S  S S  S S  S S  S S
|-10---10---10---10---10---10---10---10---|
|----3----3----3----3----3----3----3----3-|
|-----------------------------------------|
|-----------------------------------------|


   S S  S S  S S  S S  S S  S S  S S  S S
|-14-2-14-2-14-2-14-2-14-2-14-2-14-2-14-2-|
|-----------------------------------------|
|-----------------------------------------|
|-----------------------------------------|


   S S  S S  S S  S S  S S  S S  S S  S S
|-14-2-14-2-14-2-14-2-14-2-14-2-14-2-14-2-|
|-----------------------------------------|
|-----------------------------------------|
|-----------------------------------------|


   S S  S S  S S  S S  S S  S S  S S  S S
|-10---10---10---10---10---10---10---10---|
|----3----3----3----3----3----3----3----3-|
|-----------------------------------------|
|-----------------------------------------|


   S S  S S  S S  S S  S S  S S  S S  S S
|-10---10---10---10---10---10---10---10---|
|----3----3----3----3----3----3----3----3-|
|-----------------------------------------|
|-----------------------------------------|


   S S  S S  S S  S S  S S  S S  S S  S S
|-14-2-14-2-14-2-14-2-14-2-14-2-14-2-14-2-|
|-----------------------------------------|
|-----------------------------------------|
|-----------------------------------------|


   S S  S S  S S  S S  S S  S S  S S  S S
|-14-2-14-2-14-2-14-2-14-2-14-2-14-2-14-2-|
|-----------------------------------------|
|-----------------------------------------|
|-----------------------------------------|


   S S  S S  S S  S S  S S  S S  S S  S S
|-10---10---10---10---10---10---10---10---|
|----3----3----3----3----3----3----3----3-|
|-----------------------------------------|
|-----------------------------------------|


   S S  S S  S S  S S  S S  S S  S S  S S
|-10---10---10---10---10---10---10---10---|
|----3----3----3----3----3----3----3----3-|
|-----------------------------------------|
|-----------------------------------------|


   S S  S S  S S  S S  S S  S S  S S  S S
|-14-2-14-2-14-2-14-2-14-2-14-2-14-2-14-2-|
|-----------------------------------------|
|-----------------------------------------|
|-----------------------------------------|


   S S  S S  S S  S S  S S  S S  S S  S S
|-14-2-14-2-14-2-14-2-14-2-14-2-14-2-14-2-|
|-----------------------------------------|
|-----------------------------------------|
|-----------------------------------------|


   S S  S S  S S  S S  S S  S S  S S  S S
|-10---10---10---10---10---10---10---10---|
|----3----3----3----3----3----3----3----3-|
|-----------------------------------------|
|-----------------------------------------|


   S S  S S  S S  S S  S S  S S  S S  S S
|-10---10---10---10---10---10---10---10---|
|----3----3----3----3----3----3----3----3-|
|-----------------------------------------|
|-----------------------------------------|


   S S  S S  S S  S S  S S  S S  S S  S S
|-14-2-14-2-14-2-14-2-14-2-14-2-14-2-14-2-|
|-----------------------------------------|
|-----------------------------------------|
|-----------------------------------------|


   S S  S S  S S  S S  S S  S S  S S  S S
|-14-2-14-2-14-2-14-2-14-2-14-2-14-2-14-2-|
|-----------------------------------------|
|-----------------------------------------|
|-----------------------------------------|


   S S  S S  S S  S S  S S  S S  S S  S S
|-10---10---10---10---10---10---10---10---|
|----3----3----3----3----3----3----3----3-|
|-----------------------------------------|
|-----------------------------------------|


   S S  S S  S S  S S  S S  S S  S S  S S
|-10---10---10---10---10---10---10---10---|
|----3----3----3----3----3----3----3----3-|
|-----------------------------------------|
|-----------------------------------------|


   S S  S S  S S  S S  S S  S S  S S  S S
|-14-2-14-2-14-2-14-2-14-2-14-2-14-2-14-2-|
|-----------------------------------------|
|-----------------------------------------|
|-----------------------------------------|


   S S  S S  S S  S S  S S  S S  S S  S S
|-14-2-14-2-14-2-14-2-14-2-14-2-14-2-14-2-|
|-----------------------------------------|
|-----------------------------------------|
|-----------------------------------------|


   S S  S S  S S  S S  S S  S S  S S  S S
|-10---10---10---10---10---10---10---10---|
|----3----3----3----3----3----3----3----3-|
|-----------------------------------------|
|-----------------------------------------|


   S S  S S  S S  S S  S S  S S  S S  S S
|-10---10---10---10---10---10---10---10---|
|----3----3----3----3----3----3----3----3-|
|-----------------------------------------|
|-----------------------------------------|


   S S  S S  S S  S S  S S  S S  S S  S S
|-14-2-14-2-14-2-14-2-14-2-14-2-14-2-14-2-|
|-----------------------------------------|
|-----------------------------------------|
|-----------------------------------------|


   S S  S S  S S  S S  S S  S S  S S  S S
|-14-2-14-2-14-2-14-2-14-2-14-2-14-2-14-2-|
|-----------------------------------------|
|-----------------------------------------|
|-----------------------------------------|


   S S  S S  S S  S S  S S  S S  S S  S S
|-10---10---10---10---10---10---10---10---|
|----3----3----3----3----3----3----3----3-|
|-----------------------------------------|
|-----------------------------------------|


   S S  S S  S S  S S  S S  S S  S S  S S
|-10---10---10---10---10---10---10---10---|
|----3----3----3----3----3----3----3----3-|
|-----------------------------------------|
|-----------------------------------------|


   S S  S S  S S  S S  S S  S S  S S  S S
|-14-2-14-2-14-2-14-2-14-2-14-2-14-2-14-2-|
|-----------------------------------------|
|-----------------------------------------|
|-----------------------------------------|


   S S  S S  S S  S S  S S  S S  S S  S S
|-14-2-14-2-14-2-14-2-14-2-14-2-14-2-14-2-|
|-----------------------------------------|
|-----------------------------------------|
|-----------------------------------------|


   S S  S S  S S  S S  S S  S S  S S  S S
|-10---10---10---10---10---10---10---10---|
|----3----3----3----3----3----3----3----3-|
|-----------------------------------------|
|-----------------------------------------|


   S S  S S  S S  S S  S S  S S  S S  S S
|-10---10---10---10---10---10---10---10---|
|----3----3----3----3----3----3----3----3-|
|-----------------------------------------|
|-----------------------------------------|


   S S  S S  S S  S S  S S  S S  S S  S S
|-14-2-14-2-14-2-14-2-14-2-14-2-14-2-14-2-|
|-----------------------------------------|
|-----------------------------------------|
|-----------------------------------------|


   S S  S S  S S  S S  S S  S S  S S  S S
|-14-2-14-2-14-2-14-2-14-2-14-2-14-2-14-2-|
|-----------------------------------------|
|-----------------------------------------|
|-----------------------------------------|


   S S  S S  S S  S S  S S  S S  S S  S S
|-10---10---10---10---10---10---10---10---|
|----3----3----3----3----3----3----3----3-|
|-----------------------------------------|
|-----------------------------------------|


   S S  S S  S S  S S  S S  S S  S S  S S
|-10---10---10---10---10---10---10---10---|
|----3----3----3----3----3----3----3----3-|
|-----------------------------------------|
|-----------------------------------------|


   S S  S S  S S  S S  S S  S S  S S  S S
|-14-2-14-2-14-2-14-2-14-2-14-2-14-2-14-2-|
|-----------------------------------------|
|-----------------------------------------|
|-----------------------------------------|


   S S  S S  S S  S S  S S  S S  S S  S S
|-14-2-14-2-14-2-14-2-14-2-14-2-14-2-14-2-|
|-----------------------------------------|
|-----------------------------------------|
|-----------------------------------------|


   S S  S S  S S  S S  S S  S S  S S  S S
|-10---10---10---10---10---10---10---10---|
|----3----3----3----3----3----3----3----3-|
|-----------------------------------------|
|-----------------------------------------|


   S S  S S  S S  S S  S S  S S  S S  S S
|-10---10---10---10---10---10---10---10---|
|----3----3----3----3----3----3----3----3-|
|-----------------------------------------|
|-----------------------------------------|


  Q.   E  Q   +S  S S S    Q.    Q   E  +S  S S S
|-2----9-14--(14)-2-5-9-|-14--------14-(14)-2-5-2-|
|-----------------------|-------14----------------|
|-----------------------|-------------------------|
|-----------------------|-------------------------|


  Q.   E  Q   +S  S S S    Q.   E  Q   +S  S S  S
|------5-10--(10)---2-5-|-10----5-10--(10)---5-10--|
|-3---------------3-----|------------------3-------|
|-----------------------|--------------------------|
|-----------------------|--------------------------|


  Q.   E  Q   +S  S S S    Q.    Q   E  +S  S S S
|-2----9-14--(14)-2-5-9-|-14--------14-(14)-2-5-2-|
|-----------------------|-------14----------------|
|-----------------------|-------------------------|
|-----------------------|-------------------------|


  Q.   E  Q   +S  S S S    Q.   E  Q   +S  S S  S
|------5-10--(10)---2-5-|-10----5-10--(10)---5-10--|
|-3---------------3-----|------------------3-------|
|-----------------------|--------------------------|
|-----------------------|--------------------------|


  Q.   E  Q   +S  S S S    Q.    Q   E  +S  S S S
|-2----9-14--(14)-2-5-9-|-14--------14-(14)-2-5-2-|
|-----------------------|-------14----------------|
|-----------------------|-------------------------|
|-----------------------|-------------------------|


  Q.   E  Q   +S  S S S    Q.   E  Q   +S  S S  S
|------5-10--(10)---2-5-|-10----5-10--(10)---5-10--|
|-3---------------3-----|------------------3-------|
|-----------------------|--------------------------|
|-----------------------|--------------------------|


  Q.   E  Q   +S  S S S    Q.    Q   E  +S  S S S
|-2----9-14--(14)-2-5-9-|-14--------14-(14)-2-5-2-|
|-----------------------|-------14----------------|
|-----------------------|-------------------------|
|-----------------------|-------------------------|


  Q.   E  Q   +S  S S S    Q.   E  Q   +S  S S  S
|------5-10--(10)---2-5-|-10----5-10--(10)---5-10--|
|-3---------------3-----|------------------3-------|
|-----------------------|--------------------------|
|-----------------------|--------------------------|


  Q.   E  Q   +S  S S S    Q.    Q   E  +S  S S S
|-2----9-14--(14)-2-5-9-|-14--------14-(14)-2-5-2-|
|-----------------------|-------14----------------|
|-----------------------|-------------------------|
|-----------------------|-------------------------|


  Q.   E  Q   +S  S S S    Q.   E  Q   +S  S S  S
|------5-10--(10)---2-5-|-10----5-10--(10)---5-10--|
|-3---------------3-----|------------------3-------|
|-----------------------|--------------------------|
|-----------------------|--------------------------|


  Q.   E  Q   +S  S S S    Q.    Q   E  +S  S S S
|-2----9-14--(14)-2-5-9-|-14--------14-(14)-2-5-2-|
|-----------------------|-------14----------------|
|-----------------------|-------------------------|
|-----------------------|-------------------------|


  Q.   E  Q   +S  S S S    Q.   E  Q   +S  S S  S
|------5-10--(10)---2-5-|-10----5-10--(10)---5-10--|
|-3---------------3-----|------------------3-------|
|-----------------------|--------------------------|
|-----------------------|--------------------------|


  Q.   E  Q   +S  S S S    Q.    Q   E  +S  S S S
|-2----9-14--(14)-2-5-9-|-14--------14-(14)-2-5-2-|
|-----------------------|-------14----------------|
|-----------------------|-------------------------|
|-----------------------|-------------------------|


  Q.   E  Q   +S  S S S    Q.   E  Q   +S  S S  S
|------5-10--(10)---2-5-|-10----5-10--(10)---5-10--|
|-3---------------3-----|------------------3-------|
|-----------------------|--------------------------|
|-----------------------|--------------------------|


  Q.   E  Q   +S  S S S    Q.    Q   E  +S  S S S
|-2----9-14--(14)-2-5-9-|-14--------14-(14)-2-5-2-|
|-----------------------|-------14----------------|
|-----------------------|-------------------------|
|-----------------------|-------------------------|


  Q.   E  Q   +S  S S S    Q.   E  Q   +S  S S  S
|------5-10--(10)---2-5-|-10----5-10--(10)---5-10--|
|-3---------------3-----|------------------3-------|
|-----------------------|--------------------------|
|-----------------------|--------------------------|


  Q.   E  Q   +S  S S S    Q.    Q   E  +S  S S S
|-2----9-14--(14)-2-5-9-|-14--------14-(14)-2-5-2-|
|-----------------------|-------14----------------|
|-----------------------|-------------------------|
|-----------------------|-------------------------|


  Q.   E  Q   +S  S S S    Q.   E  Q   +S  S S  S
|------5-10--(10)---2-5-|-10----5-10--(10)---5-10--|
|-3---------------3-----|------------------3-------|
|-----------------------|--------------------------|
|-----------------------|--------------------------|


  Q.   E  Q   +S  S S S    Q.    Q      E  +S  S S S
|-2----9-14--(14)-2-5-9-|-14-----------14-(14)-2-5-2-|
|-----------------------|-------14-------------------|
|-----------------------|----------------------------|
|-----------------------|----------------------------|
|
| Gtr II
| W                       +H        Q       Q
|-5---------------------|-(5)-------7-------8--------|
|-----------------------|-----------0-------1--------|
|-2---------------------|-(2)------------------------|
|-----------------------|----------------------------|
|-0---------------------|-(0)------(0)-----(0)-------|
|-----------------------|----------------------------|
|-----------------------|----------------------------|


   Q.   E  Q   +S  S S S     Q.   E  Q    +S  S S  S
|-------5-10--(10)---2-5-|--10----5-10---(10)---5-10--|
|--3---------------3-----|--------------------3-------|
|------------------------|----------------------------|
|------------------------|----------------------------|
|
|  W                        +H       Q     Q
|-12---------------------|-(12)------7-----8----------|
|--5---------------------|--(5)------0-----1----------|
|------------------------|----------------------------|
|------------------------|----------------------------|
|------------------------|----------------------------|
|--1---------------------|--(1)-----(1)---(1)---------|
|------------------------|----------------------------|


  Q.      E  Q   +S  S S S    Q.    Q      E  +S  S S S
|-2-------9-14--(14)-2-5-9-|-14-----------14-(14)-2-5-2-|
|--------------------------|-------14-------------------|
|--------------------------|----------------------------|
|--------------------------|----------------------------|
|
| Q    H.                    +H        Q       Q
|-7----5-------------------|-(5)-------7-------8--------|
|-0------------------------|-----------0-------1--------|
|------2-------------------|-(2)------------------------|
|--------------------------|----------------------------|
|-0---(0)------------------|-(0)------(0)-----(0)-------|
|--------------------------|----------------------------|
|--------------------------|----------------------------|


   Q.   E  Q   +S  S S S     Q.   E  Q    +S  S S  S
|-------5-10--(10)---2-5-|--10----5-10---(10)---5-10--|
|--3---------------3-----|--------------------3-------|
|------------------------|----------------------------|
|------------------------|----------------------------|
|
|  W                        +H       Q     Q
|-12---------------------|-(12)------7-----8----------|
|--5---------------------|--(5)------0-----1----------|
|------------------------|----------------------------|
|------------------------|----------------------------|
|------------------------|----------------------------|
|--1---------------------|--(1)-----(1)---(1)---------|
|------------------------|----------------------------|


  Q.   E  Q   +S  S S S    Q.    Q      E  +S  S S S
|-2----9-14--(14)-2-5-9-|-14-----------14-(14)-2-5-2-|
|-----------------------|-------14-------------------|
|-----------------------|----------------------------|
|-----------------------|----------------------------|
|
| W                       +H        Q       Q
|-5---------------------|-(5)-------7-------8--------|
|-----------------------|-----------0-------1--------|
|-2---------------------|-(2)------------------------|
|-----------------------|----------------------------|
|-0---------------------|-(0)------(0)-----(0)-------|
|-----------------------|----------------------------|
|-----------------------|----------------------------|


   Q.   E  Q   +S  S S S     Q.   E  Q    +S  S S  S
|-------5-10--(10)---2-5-|--10----5-10---(10)---5-10--|
|--3---------------3-----|--------------------3-------|
|------------------------|----------------------------|
|------------------------|----------------------------|
|
|  W                        +H       Q     Q
|-12---------------------|-(12)------7-----8----------|
|--5---------------------|--(5)------0-----1----------|
|------------------------|----------------------------|
|------------------------|----------------------------|
|------------------------|----------------------------|
|--1---------------------|--(1)-----(1)---(1)---------|
|------------------------|----------------------------|


  >                           >
  Q.      E  Q   +S  S S S    Q.    Q      E  +S  S S S
|-2-------9-14--(14)-2-5-9-|-14-----------14-(14)-2-5-2-|
|--------------------------|-------14-------------------|
|--------------------------|----------------------------|
|--------------------------|----------------------------|
|
| Q    H.                    +H        Q       Q
|-7----5-------------------|-(5)-------7-------8--------|
|-0------------------------|-----------0-------1--------|
|------2-------------------|-(2)------------------------|
|--------------------------|----------------------------|
|-0---(0)------------------|-(0)------(0)-----(0)-------|
|--------------------------|----------------------------|
|--------------------------|----------------------------|


   >                         >
   Q.   E  Q   +S  S S S     Q.   E  Q    +S  S S  S
|-------5-10--(10)---2-5-|--10----5-10---(10)---5-10--||
|--3---------------3-----|--------------------3-------||
|------------------------|----------------------------||
|------------------------|----------------------------||
|
|  W                        +H       Q     Q
|-12---------------------|-(12)------7-----8----------||
|--5---------------------|--(5)------0-----1----------||
|------------------------|----------------------------||
|------------------------|----------------------------||
|------------------------|----------------------------||
|--1---------------------|--(1)-----(1)---(1)---------||
|------------------------|----------------------------||


  Gtr II
  H     Q    Q     W          H     Q    Q     Q   Q    H
|----------------|----------|----------------|-0--(0)--(0)----|
|-------0----1---|-3--------|-0-----1----3---|-----1----0-----|
|-2--------------|----------|-------0--------|----------------|
|----------------|----------|-0----------0---|----------------|
|-0----(0)--(0)--|----------|----------------|-3--------------|
|----------------|-1--------|-3----(3)--(3)--|----------0-----|
|----------------|----------|----------------|-1--(1)---------|


  H     Q    Q     W          H    Q   Q     W          H     Q    Q
|----------------|----------|--------------|----------|-5-----7----8-----|
|-------0----1---|-3--------|-0------------|----------|-------0----1-----|
|-2-----2----0---|----------|------2---1---|-2--------|-2----------------|
|-2--------------|-3--------|-0----2--(2)--|-2--------|------------------|
|-0----(0)--(0)--|----------|--------------|-0--------|-0----(0)--(0)----|
|----------------|-1--------|-3----4--(4)--|----------|------------------|
|----------------|----------|--------------|----------|------------------|


   W          H     Q    Q      H      H       H     Q    Q      W
|-10--------|-7-----8---10---|-12----(12)----|-5-----7----8---|-12--------|
|--3--------|-0-----1----3---|--5-----(5)----|-------0----1---|--5--------|
|-----------|----------------|---------------|-2--------------|-----------|
|-----------|----------------|---------------|----------------|-----------|
|-----------|----------------|---------------|-0----(0)--(0)--|-----------|
|--1--------|-3----(3)--(3)--|---------0-----|----------------|--1--------|
|-----------|----------------|--1------------|----------------|-----------|


   +W            +W            Q.    E  +H        Q.    E  +H
|-(12)--------|-(12)--------|-12----10-(10)----|-12----10-(10)----||
|--(5)--------|--(5)--------|--5-----3--(3)----|--5-----3--(3)----||
|-------------|-------------|------------------|------------------||
|-------------|-------------|------------------|------------------||
|-------------|-------------|------------------|------------------||
|--(1)--------|--(1)--------|------------------|------------------||
|-------------|-------------|------------------|------------------||


 Live On (24:19)
  Q=176
  Gtr I
   E E E E E E E E     E  E E E E E E E
|------------------|--------------------|
|------------------|--------------------|
|------------------|--------------------|
|--5-5-5-5-5-5-5-5-|---5--5-5-5-5-5-5-5-|
|
| Gtr II
|  W                  +W
|-12---------------|-(12)---------------|
|--5---------------|--(5)---------------|
|------------------|--------------------|
|------------------|--------------------|
|------------------|--------------------|
|------------------|--------------------|
|------------------|--------------------|


    E  E E E E E E E     E  E E E E E E E
|--------------------|--------------------|
|--------------------|--------------------|
|--------------------|--------------------|
|---5--5-5-5-5-5-5-5-|---5--5-5-5-5-5-5-5-|
|
|  +W                   +W
|-(12)---------------|-(12)---------------|
|--(5)---------------|--(5)---------------|
|--------------------|--------------------|
|--------------------|--------------------|
|--------------------|--------------------|
|--------------------|--------------------|
|--------------------|--------------------|


    E  E E E E E E E     E  E E E E E E E
|--------------------|--------------------|
|--------------------|--------------------|
|--------------------|--------------------|
|---5--5-5-5-5-5-5-5-|---5--5-5-5-5-5-5-5-|
|
|  +W                   +W
|-(12)---------------|-(12)---------------|
|--(5)---------------|--(5)---------------|
|--------------------|--------------------|
|--------------------|--------------------|
|--------------------|--------------------|
|--------------------|--------------------|
|--------------------|--------------------|


    E  E E E E E E E     Q.   Q.   Q
|--------------------|----------------||
|--------------------|---7------------||
|--------------------|--------7-------||
|---5--5-5-5-5-5-5-5-|-------------5--||
|
|  +W                   +W
|-(12)---------------|-(12)-----------||
|--(5)---------------|--(5)-----------||
|--------------------|----------------||
|--------------------|----------------||
|--------------------|----------------||
|--------------------|----------------||
|--------------------|----------------||


  W          +W           W          +W
|----------|------------|----------|------------|
|----------|------------|----------|------------|
|----------|------------|----------|------------|
|-6--------|-(6)--------|-5--------|-(5)--------|


  W          +W           W          +W
|----------|------------|----------|--------|
|----------|------------|----------|--------|
|----------|------------|-3--------|-(3)----|
|-6--------|-(6)--------|----------|--------|


  Q.   Q.   Q    Q.   Q.   Q    Q.   Q.   Q    W
|-----------7--|-----------7--|-----------7--|------||
|------7-------|------7-------|------7-------|------||
|-5------------|-5------------|-5------------|-5----||
|--------------|--------------|--------------|------||


  E E E E E E E E   E E E E E E E E   E E E E E E E E   E E E E E E E E
|-----------------|-----------------|-----------------|-----------------|
|-----------------|-----------------|-----------------|-5-----4-----5---|
|-----------------|-----------------|-3-3-3-3-3-3-3-3-|---3-3---3-3---3-|
|-0-0-0-0-0-0-0-0-|-0-0-0-0-0-0-0-0-|-----------------|-----------------|


  E E E E E E E E   E E E E E E E E   E E E E E Q  E   E E E E E E E E
|-----------------|-----------------|----------------|-----------------|
|-----------------|-------------4-4-|-5-5-5-5-5-7--5-|-----------------|
|-5-5-5-5-5-5-5-5-|-5-5-5-5-7-7-----|----------------|-2-2-2-2-2-0-----|
|-----------------|-----------------|----------------|-------------3-2-|


  E E E E E E E E   E E E E E E E E   W          E E E E E E E E
|-----------------|-----------------|----------|-----------------|
|-----------------|-----------------|----------|-5-----4-----5---|
|-----------------|-----------------|-3--------|---3-3---3-3---3-|
|-0-0-0-0-0-0-0-0-|-0-0-0-0-0-0-0-0-|----------|-----------------|


  E E E E E E E E   E E E E E E E E   E E E E E E E E   E E E E Q  Q
|-----------------|-----------4-----|-----------------|---9-----------||
|---------7---7-7-|---------------4-|-----------------|---------------||
|-5-5-5-5---5-----|-6-6-6-6-6---6---|-7-7-7-7-7-7-7-7-|-7---7-7-7--5--||
|-----------------|-----------------|-----------------|---------------||


  E Q.    E Q.     E E E E E E E E
|----------------|---------4-------|
|---------5------|---4-5-7---7-5-4-|
|-3-3-------3----|-5---------------|
|----------------|-----------------|
|
| Gtr II
| Q    Q  H        Q   Q   H
|---------0------|---------2-------|
|----------------|-----------------|
|------0---------|-----2-----------|
|---------2------|---------4-------|
|----------------|-----0-----------|
|------3---------|-----------------|
|----------------|-----------------|


  E Q.   E E E E   E Q.   E Q  E   E E E E E E E E
|----------------|---------------|-----------------|
|----------------|---------------|-----------------|
|----------------|-2-2----2-0--2-|-3-3-3-3-3-3-3-3-|
|-3-3----3-2-3-3-|---------------|-----------------|
|
| H      H         H      H        W
|-3--------------|--------2------|-----------------|
|--------3-------|-4-------------|-----------------|
|-0--------------|---------------|-----------------|
|--------0-------|-1------4------|-----------------|
|----------------|---------------|-----------------|
|----------------|---------------|-----------------|
|----------------|---------------|-----------------|


  E E E E E E E E   E E E E E E E E
|-----------------|-----------------|
|-----------------|-----------------|
|-4-4-4-4-4-4-4-4-|-5-5-5-5-5-5-5-5-|
|-----------------|-----------------|
|
| W                 W
|-----------------|-----------------|
|-----------------|-----------------|
|-----------------|-----------------|
|-----------------|-----------------|
|-----------------|-----------------|
|-----------------|-----------------|
|-----------------|-----------------|


  E Q.    E Q   E   H     E Q.     Q  E H     E
|-----------------|--------------|--------------|
|-----------------|-------5------|----7---------|
|-2-2-----2-0---2-|-3-------3----|-5----5-------|
|-----------------|--------------|------------5-|
|
| Q    Q  Q   Q     Q  Q  H        Q  Q   H
|-----------------|-------0------|--------2-----|
|-4----0----------|--------------|--------------|
|-----------------|----0---------|----2---------|
|-1-------4---1---|-------2------|--------4-----|
|------2----------|--------------|----0---------|
|---------2-------|----3---------|--------------|
|-------------4---|--------------|--------------|


  H    E E E E   E Q.   E Q.     H    E Q.     Q  E E Q  Q
|--------------|---------------|-------------|--------------||
|--------------|--------4------|------5------|----4-5-7-----||
|--------------|-2-2------2----|-3------3----|-5---------5--||
|-3----3-2-3-3-|---------------|-------------|--------------||
|
| H    H         W               H    H        W
|-3------------|-2-------------|------0------|-2------------||
|------3-------|---------------|-------------|--------------||
|-0------------|---------------|-------------|--------------||
|------0-------|-4-------------|------2------|-4------------||
|--------------|---------------|-------------|--------------||
|--------------|---------------|-------------|--------------||
|--------------|---------------|-------------|--------------||


  E E E E E E E E   E E E E E E E E   E E E E E E E E   E E E E E E E E
|-----------------|-----------------|-----------------|-----------------|
|-2-2-2-2-2-2-2-2-|-2-2-2-2-2-2-2-2-|-2-2-2-2-2-2-2-2-|-2-2-2-2-2-2-2-2-|
|-----------------|-----------------|-----------------|-----------------|
|-0-0-0-0-0-0-0-0-|-0-0-0-0-0-0-0-0-|-0-0-0-0-0-0-0-0-|-0-0-0-0-0-0-0-0-|


  E E E E E E E E   E E E E E E E E   E E E E E E E E   E E E E E E E E
|-----------------|-----------------|-----------------|-----------------||
|-2-2-2-2-2-2-2-2-|-2-2-2-2-2-2-2-2-|-2-2-2-2-2-2-2-2-|-2-2-2-2-2-2-2-2-||
|-----------------|-----------------|-----------------|-----------------||
|-0-0-0-0-0-0-0-0-|-0-0-0-0-0-0-0-0-|-0-0-0-0-0-0-0-0-|-0-0-0-0-0-0-0-0-||


  E E E E E E E E   E E E E E E E E   E E E E E E E E   E E E E E E E E
|-----------------|-----------------|-----------------|-----------------|
|-----------------|-----------------|-----------------|-----------------|
|-----------------|-----------------|-----------------|-----------------|
|-1-1-1-1-1-1-1-1-|-1-1-1-1-1-1-1-1-|-0-0-0-0-0-0-0-0-|-0-0-0-0-0-0-0-0-|


  E E E E E E E E   E E E E E E E E
|-----------------|-----------------|
|-----------------|-----------------|
|-----------------|-----------------|
|-1-1-1-1-1-1-1-1-|-1-1-1-1-1-1-1-1-|
|
| Gtr II
| W                 W
|-----------------|-----------------|
|-----------------|-----------------|
|-----------------|-----------------|
|-----------------|-----------------|
|-----------------|-----------------|
|-----------------|-----------------|
|-----------------|-----------------|


  E E E E E E E E   E E E E E   E   E   E
|-----------------|--------------------------||
|-----------------|--------------------------||
|-----------------|--------------------------||
|-3-3-3-3-3-3-3-3-|-3-3-3-3-3---3---3---3----||
|
| W                 H       S S S S S S S  S
|-----------------|-----------0-1-3-5-7-8-10-||
|-----------------|---------3---------0-1--3-||
|-----------------|---------------0-2--------||
|-----------------|---------0-2-3------------||
|-----------------|--------------------------||
|-----------------|--------------------------||
|-----------------|--------------------------||


   E E E E E E E E    E E E E E E E E   E E E E E E E E   E E E E E E E E
|------------------|------------------|-----------------|-----------------|
|------------------|------------------|-----------------|-----------------|
|--3-3-3-3-3-3-3-3-|--2-2-2-2-2-2-2-2-|-0-0-0-0-0-0-0-0-|-----------------|
|------------------|------------------|-----------------|-0-0-0-0-0-0-0-0-|
|
|  W                  W                 W                 W
|-12---------------|-10---------------|-8---------------|-7---------------|
|--5---------------|--3---------------|-1---------------|-0---------------|
|------------------|------------------|-----------------|-----------------|
|------------------|------------------|-----------------|-----------------|
|------------------|------------------|-----------------|-----------------|
|------------------|------------------|-----------------|-----------------|
|------------------|------------------|-----------------|-----------------|


  E E E E E E E E   E E E E E E E E
|-----------------|-----------------|
|-----------------|-----------------|
|-----------------|-----------------|
|-1-1-1-1-1-1-1-1-|-1-1-1-1-1-0-1-2-|
|
| W                 H       H
|-5---------------|-1-------5-------|
|-----------------|-----------------|
|-2---------------|---------2-------|
|-----------------|-3---------------|
|-----------------|-----------------|
|-----------------|-----------------|
|-----------------|-----------------|


  E E E E E E E E    E  E E E E   E   E   E
|-----------------|----------------------------|
|-----------------|----------------------------|
|-----------------|--3--3-3-3-3---3---3---3----|
|-3-3-3-3-3-3-3-3-|----------------------------|
|
| W                 +H        S S S S S S S  S
|-3---------------|-(3)---------0-1-3-5-7-8-10-|
|-----------------|-----------3---------0-1--3-|
|-0---------------|-(0)-------------0-2--------|
|-----------------|-----------0-2-3------------|
|-----------------|----------------------------|
|-----------------|----------------------------|
|-----------------|----------------------------|


   E E E E E E E E    E E E E  E E E E   E E E E E E E E    E E E E E E E E
|------------------|-------------------|-----------------|------------------|
|------------------|-------------------|-----------------|------------------|
|--3-3-3-3-3-3-3-3-|--2-2-2-2--2-2-2-2-|-0-0-0-0-0-0-0-0-|------------------|
|------------------|-------------------|-----------------|--0-0-0-0-0-0-0-0-|
|
|  W                  H        H         W                  W
|-12---------------|-10-------15-------|-8---------------|-20---------------|
|--5---------------|--3--------8-------|-1---------------|-13---------------|
|------------------|-------------------|-----------------|------------------|
|------------------|-------------------|-----------------|------------------|
|------------------|-------------------|-----------------|------------------|
|------------------|-------------------|-----------------|------------------|
|------------------|-------------------|-----------------|------------------|


    E  E E E E E E E     E  E E E E E E E
|--------------------|--------------------|
|--------------------|--------------------|
|--------------------|--------------------|
|---1--1-1-1-1-1-1-1-|---1--1-1-1-1-0-1-2-|
|
|  +W                   +W
|-(20)---------------|-(20)---------------|
|-(13)---------------|-(13)---------------|
|--------------------|--------------------|
|--------------------|--------------------|
|--------------------|--------------------|
|--------------------|--------------------|
|--------------------|--------------------|


   E E E E E E E E    E E E E E E  E E
|------------------|-------------------||
|------------------|-------------------||
|------------------|-------------------||
|--3-3-3-3-3-3-3-3-|--4-4-4-4-4-4--4-4-||
|
|  W                  Q   Q   E Q.
|-22---------------|-12---7---4-7------||
|-15---------------|--5---0-----0------||
|------------------|----------1--------||
|------------------|-------------------||
|------------------|-------------------||
|------------------|-------------------||
|------------------|-------------------||


  W          +W           W          +W
|----------|------------|----------|------------|
|----------|------------|----------|------------|
|----------|------------|----------|------------|
|-5--------|-(5)--------|-1--------|-(1)--------|


  H.      Q    W          W          E E  E E E E E E
|------------|----------|----------|-9-7--------------|
|------------|-5--------|----------|-----10-9-7-6-----|
|---------5--|----------|-3--------|--------------8-7-|
|-3----------|----------|----------|------------------|


  H.      E E   Q.   Q.   Q    Q.   Q.   Q
|-------------|-5----4----5--|--------------|
|---------5h7-|--------------|-----------3--|
|-------------|--------------|------3-------|
|-5-----------|--------------|-1------------|


  +E  Q  E Q  Q    W          W
|----------------|----------|------||
|-(3)------5--3--|----------|------||
|-----3--3-------|----------|------||
|----------------|-3--------|-4----||


 6/4
  E E E E E E E E E E E E   E E E E E E E E E E E E
|-------------------------|-------------------------|
|-------------------------|-------------------------|
|-0-0-0-0-0-0-0-0-0-0-0-0-|-2-2-2-2-2-2-2-2-2-2-2-2-|
|-------------------------|-------------------------|


  E E E E E E E E E E E E   E E E E E E E E E E E E
|-------------------------|---------------------------|
|-------------------------|---------------------------|
|-2-2-2-2-2-2-2-2-2-2-2-2-|-2-2-2-2-2-2-2-2-2-2-2-2---|
|-------------------------|---------------------------|


  E E E E E E E E E E E E   E E E E E E E E E E E E
|-------------------------|-------------------------|
|-------------------------|-------------------------|
|-------------------------|-------------------------|
|-0-0-0-0-0-0-0-0-0-0-0-0-|-2-2-2-2-2-2-2-2-3-3-3-3-|
|
| Gtr II
| E E E E E E E E E E E E   E E E E E E E E E E E E
|-------------------------|-------------------------|
|-0-------0-------0-----0-|-2-----0-2---0-2-3-0-2-3-|
|-----0-2-----0-2---0-2---|---1-2-----2-------------|
|---4-------4-------------|-----------------0-----0-|
|-2-----0-2-----0-2---0-2-|-4---0-2-4-0-2-4---2-4---|
|---2-3-----2-3-----3-----|---4---------------------|
|-------------------------|-------------------------|


  E E E E E E E E E E E E   E E E E E E E E E E E E
|-------------------------|----------------------------||
|-------------------------|----------------------------||
|-------------------------|----------------------------||
|-2-2-2-2-2-2-2-2-2-2-2-2-|-2-2-2-2-2-2-2-2-2-2-2-2----||
|
| W                         W
|-------------------------|----------------------------||
|-------------------------|----------------------------||
|-------------------------|----------------------------||
|-------------------------|----------------------------||
|-------------------------|----------------------------||
|-------------------------|----------------------------||
|-------------------------|----------------------------||


  E  E E E E E E E E E E E   E  E E E E E E E E E E E
|--------------------------|--------------------------|
|--------------------------|--------------------------|
|-2--2-2-2-2-2-2-2-2-2-2-2-|-2--2-2-2-2-2-2-2-2-2-2-2-|
|--------------------------|--------------------------|
|
| W.                         W.
|--------------------------|--------------------------|
|-0------------------------|-3------------------------|
|--------------------------|--------------------------|
|--------------------------|-0------------------------|
|-2------------------------|--------------------------|
|--------------------------|--------------------------|
|--------------------------|--------------------------|


  E  E E E E E E E E E E E   E  E E E E E E E E E E E
|--------------------------|-----------------------------|
|----------2-2-2-2---------|-----------------------------|
|-4--4-4-4-----------------|-----------------------------|
|------------------3-3-3-3-|-3--3-3-3-2-2-2-2-2-2-2-2----|
|
| W.                         W.
|--------------------------|-0---------------------------|
|-2------------------------|-----------------------------|
|--------------------------|-----------------------------|
|--------------------------|-2---------------------------|
|-4------------------------|-----------------------------|
|--------------------------|-----------------------------|
|--------------------------|-----------------------------|


  E E E E E E E E E E E E   E E E E E E E E E E E E
|-------------------------|-------------------------|
|-----------------1-1-1-1-|-1-1-1-1-2-2-2-2-2-2-2-2-|
|-2-2-2-2-2-2-2-2---------|-------------------------|
|-------------------------|-------------------------|
|
| H       W                 H       W
|---------2---------------|-0-------3---------------|
|-3-----------------------|-------------------------|
|-------------------------|---------0---------------|
|-0-------4---------------|-2-----------------------|
|-------------------------|-------------------------|
|-------------------------|-------------------------|
|-------------------------|-------------------------|


  E E E E  E E E E   E  E E E    E E E E  E  E E E  E E E E
|-----------------------------|--------------------------------||
|-2-2----------------2--2-2-2-|--4-4-4-4--4--4-4-4--4-4-4-4----||
|-----2-2--2-2-2-2------------|--------------------------------||
|-----------------------------|--------------------------------||
|
| H        H         H           H        H         H
|-2-------14-------(14)-------|-10--------9--------10----------||
|----------7--------(7)-------|--3--------2---------3----------||
|-----------------------------|---------------------3----------||
|-4------------------2--------|--4-------(4)-------------------||
|-----------------------------|--------------------------------||
|-----------------------------|--------------------------------||
|-----------------------------|--------------------------------||


  E  E E E E E E E E E E E   E  E E E E E E E E E E E
|--------------------------|--------------------------|
|--------------------------|--------------------------|
|-2--2-2-2-2-2-2-2-2-2-2-2-|-2--2-2-2-2-2-2-2-2-2-2-2-|
|--------------------------|--------------------------|
|
| W.                         W.
|--------------------------|--------------------------|
|-0------------------------|-3------------------------|
|--------------------------|--------------------------|
|--------------------------|-0------------------------|
|-2------------------------|--------------------------|
|--------------------------|--------------------------|
|--------------------------|--------------------------|


  E  E E E E E E E E E E E   E  E E E E E E E E E E E
|--------------------------|-----------------------------|
|----------2-2-2-2---------|----------4-4-4-4-4-4-4-4----|
|-4--4-4-4-----------------|-----------------------------|
|------------------3-3-3-3-|-3--3-3-3--------------------|
|
| W.                         W.
|--------------------------|-0---------------------------|
|-2------------------------|-----------------------------|
|--------------------------|-----------------------------|
|--------------------------|-2---------------------------|
|-4------------------------|-----------------------------|
|--------------------------|-----------------------------|
|--------------------------|-----------------------------|


  E E E E E E E E E E E E   E E E E E E E E E E E E
|-------------------------|-------------------------|
|-----------------1-1-1-1-|-1-1-4-4-2-2-2-2-5-5-5-5-|
|-2-2-2-2-2-2-2-2---------|-------------------------|
|-------------------------|-------------------------|
|
| H       W                 H       W
|---------2---------------|-0-------3---------------|
|-3-----------------------|-------------------------|
|-------------------------|---------0---------------|
|-0-------4---------------|-2-----------------------|
|-------------------------|-------------------------|
|-------------------------|-------------------------|
|-------------------------|-------------------------|


  |-3-| |-3-| |-3-|   |-3-| |-3-|                     |-3-|
  Q Q Q Q Q Q Q Q Q   Q Q Q Q Q Q H      +H     Q  Q  Q Q Q
|-------------------|------------------|---------------------||
|-------------------|-------------2----|-(2)----0------------||
|-------------------|------------------|-----------3--2------||
|-3-3-3-3-3-3-3-3-3-|-3-3-3-3-3-3------|----------------4-0--||
|
| |-3-| |-3-| |-3-|   |-3-| |-3-|
| Q Q Q Q Q Q Q Q Q   Q Q Q Q Q Q H      +W.
|-3-3-3-3-3-3-3-3-3-|-3-3-3-3-3-3-4----|-(4)-----------------||
|-------------------|------------------|---------------------||
|-0-0-0-0-0-0-0-0-0-|-0-0-0-0-0-0-1----|-(1)-----------------||
|-0-0-0-0-0-0-0-0-0-|-0-0-0-0-0-0-2----|-(2)-----------------||
|-2-2-2-2-2-2-2-2-2-|-2-2-2-2-2-2-2----|-(2)-----------------||
|-3-3-3-3-3-3-3-3-3-|-3-3-3-3-3-3-4----|-(4)-----------------||
|-------------------|------------------|---------------------||


  Q=82
 4/4
  Q  Q  Q  Q    Q  Q  Q  Q    Q  Q  Q  Q    W          +W
|-------------|-------------|-------------|----------|--------||
|-------------|-------------|-------------|----------|--------||
|-------------|-------------|-------------|----------|--------||
|-1--1--3--3--|-5--5--5--5--|-1--1--3--3--|-5--------|-(5)----||
|
| H     H       W             H     H       W          +W
|-------------|-------------|-------------|----------|--------||
|-------------|-------------|-------------|----------|--------||
|-------------|-------------|-------------|----------|--------||
|-------0-----|-2-----------|-------0-----|-2--------|-(2)----||
|-3-----------|-------------|-3-----------|----------|--------||
|-------------|-------------|-------------|----------|--------||
|-------------|-------------|-------------|----------|--------||


  Q  S S S S Q  S S S S   H    Q  Q    Q  S S S S H      Q  Q  Q  Q
|-----------------------|------------|-----------------|-------------|
|-----------------------|------------|-----------------|-------2-----|
|-0--0------------------|------3-----|-----------------|-3--3-----2--|
|------3-1-0-1--1-0-1-2-|-3-------0--|-1--1-0-1-2-3----|-------------|
|
| H          H            H    H       H          H      H     H
|-0----------5----------|-7----8-----|-5----------7----|-3-----4-----|
|-----------------------|-0----1-----|------------0----|-------------|
|------------2----------|------------|-2---------------|-0-----1-----|
|-2---------------------|------------|-----------------|-------------|
|-----------------------|------------|-----------------|-------------|
|-----------------------|------------|-----------------|-------------|
|-----------------------|------------|-----------------|-------------|


  Q  S S S S Q.   E   H    Q  S S E     Q  E E S S E E E   Q  Q  Q  Q
|-------------------|-----------------|------------------|--------------||
|-------------------|-----------------|----3---------3---|----5--6------||
|-------------------|---------0-2-3---|------------------|----------7---||
|-1--1-0-1-2-3----3-|-4----5----------|-1----1-1-0-1---1-|-3------------||
|
| H          H        H    Q  S S S S   H      Q     Q     H     Q  Q
|-5----------7------|-7----8--8-7-0---|--------1-----5---|-------0--7---||
|------------0------|-0----1--1-0---3-|-1----------------|-3--------0---||
|-2-----------------|-----------------|--------------2---|--------------||
|-------------------|-------------2-0-|--------3---------|-0-----2------||
|-------------------|-----------------|-3----------------|--------------||
|-------------------|-----------------|------------------|--------------||
|-------------------|-----------------|------------------|--------------||


  Q  S S S S Q  S S S S   H    Q  Q    Q  S S S S E Q  E   Q  +S  E S  H
|-----------------------|------------|-------------------|--------5-4--3----|
|-----------------------|------------|-------------------|------------------|
|-0--0------------------|------3-----|-------------------|-3--(3)-----------|
|------3-1-0-1--1-0-1-2-|-3-------0--|-1--1-0-1-2-3-3--3-|------------------|
|
| W                       H    H       H          H        H           H
|-8---------------------|-7----8-----|-5----------7------|-8----------15----|
|-1---------------------|-0----1-----|------------0------|-1-----------8----|
|-----------------------|------------|-2-----------------|------------------|
|-----------------------|------------|-------------------|------------------|
|-----------------------|------------|-------------------|------------------|
|-----------------------|------------|-------------------|------------------|
|-----------------------|------------|-------------------|------------------|


   H     Q   Q     H       Q  S S E    Q  E E. S E E E    Q  Q  Q  Q
|---------------|-------------------|------------------|---------------||
|---------------|-------------------|-----3-3------3---|---------------||
|--0------------|----------0--0-2-3-|------------------|---------------||
|--------3---1--|--0----------------|--1-------1-1---1-|--3--3--4--0---||
|
|  H     Q   Q     Q   Q   H           W                  W
|-13----10--15--|-16--19--17--------|-17---------------|-19------------||
|--6-----3---8--|--9--12--10--------|-10---------------|-12------------||
|---------------|-------------------|------------------|---------------||
|---------------|-------------------|------------------|---------------||
|---------------|-------------------|------------------|---------------||
|---------------|-------------------|------------------|---------------||
|---------------|-------------------|------------------|---------------||


  Q  S S S S Q  S S S S   H    Q  Q    Q  S S S S E Q  E   Q  +S  E S  H
|-----------------------|------------|-------------------|--------5-4--3----|
|-----------------------|------------|-------------------|------------------|
|-0--0------------------|------3-----|-------------------|-3--(3)-----------|
|------3-1-0-1--1-0-1-2-|-3-------0--|-1--1-0-1-2-3-3--3-|------------------|
|
| W                       H    H       H          H        H           H
|-8---------------------|-7----8-----|-5----------7------|-8----------15----|
|-1---------------------|-0----1-----|------------0------|-1-----------8----|
|-----------------------|------------|-2-----------------|------------------|
|-----------------------|------------|-------------------|------------------|
|-----------------------|------------|-------------------|------------------|
|-----------------------|------------|-------------------|------------------|
|-----------------------|------------|-------------------|------------------|


   H     Q   Q     H       Q  S S E    Q  E E. S E E E    Q  Q  H      Wx2
|---------------|-------------------|------------------|-------------|--------*|
|---------------|-------------------|-----3-3------3---|-------------|--------*|
|--0------------|----------0--0-2-3-|------------------|-------------|--------*|
|--------3---1--|--0----------------|--1-------1-1---1-|--3--3--4----|--------*|
|
|  H     Q   Q     Q   Q   H           W                  W            Wx2
|-13----10--15--|-16--19--17--------|-17---------------|-19----------|--------*|
|--6-----3---8--|--9--12--10--------|-10---------------|-12----------|--------*|
|---------------|-------------------|------------------|-------------|--------*|
|---------------|-------------------|------------------|-------------|--------*|
|---------------|-------------------|------------------|-------------|--------*|
|---------------|-------------------|------------------|-------------|--------*|
|---------------|-------------------|------------------|-------------|--------*|



Duration Legend
---------------
W - whole; H - half; Q - quarter; E - 8th; S - 16th; T - 32nd; X - 64th; a - acciaccatura
+ - note tied to previous; . - note dotted; .. - note double dotted
Uncapitalized letters represent notes that are staccato (1/2 duration)
Irregular groupings are notated above the duration line
Duration letters will always appear directly above the note/fret number it represents the
duration for.  Duration letters with no fret number below them represent rests.  Multi-
bar rests are notated in the form Wxn, where n is the number of bars to rest for.  Low
melody durations appear below the staff

Tablature Legend
----------------
 h   - hammer-on
 p   - pull-off
 b   - bend
 pb  - pre-bend
 r   - bend release (if no number after the r, then release immediately)
 /\  - slide into or out of (from/to "nowhere")
 s   - legato slide
 S   - shift slide
 - natural harmonic
[n]  - artificial harmonic
n(n) - tapped harmonic
 ~   - vibrato
 tr  - trill
 T   - tap
 TP  - trem. picking
 PM  - palm muting
\n/  - tremolo bar dip; n = amount to dip
 \n  - tremolo bar down
 n/  - tremolo bar up
/n\  - tremolo bar inverted dip
 =   - hold bend; also acts as connecting device for hammers/pulls
 <> - volume swell (louder/softer)
 x   - on rhythm slash represents muted slash
 o   - on rhythm slash represents single note slash

Misc Legend
-----------
 |  - bar
||  - double bar
||o - repeat start
o|| - repeat end
*|  - double bar (ending)
 :  - bar (freetime)
 $  - Segno
 &  - Coda
Tempo markers -  = BPM(8/16=s8/s16), where s8 = swing 8ths, s16 = swing 16ths


            
            
Suggest correction
Creating personal tab
Creating personal tab
You can edit any tab online and save it as your Personal.

You can edit, replace or remove any tab part or add personal notes – all changes will be seen only by you.

Personal tabs can be accessed anytime from any device, even offline.
Learn more »
Give kudos to tab author, rate the tab!
1 2 3 4 5
comments
print report bad tab
guest
You may want to rate the tab now too:
select rating
Wanna post a correction for this tab? Suggest correction