Oops, an error
Loading. Please wait.

Endless Rain Tab

version 2
version 2

Solo

Whole song

23,103 views 45 this week
4 commentsread comments
1 2 3 4 5
excellent!
x 4
add to favorites
launch autoscroll
font size
0
reset
how to read this tab
guitar tuner
Autoscroll
slow
fast
+/-
esc
set tempo
stop
Help us to improve Ultimate-Guitar.com Take our survey!
×
Author
Endless Rain [Solo]

Half-Step Down

-------------------------------------------------------------------------------|
----------------9b11--11r9--9--10-9h10p9---------------------------------------|
----------7-8-----------------------------10---8h10p8---7---------------7------|
------10--------------------------------------------------10----8--10----------|
-------------------------------------------------------------------------------|
-------------------------------------------------------------------------------|
                                                                pm........


-------------------------------------------------------------------------------|
-------------------------------------------------------------------------------|
--8/10----8p7------------------------------------------------------------------|
----------------10--8--8/6---8/10--8------------------------8-----/10-8--------|
---------------------------------------11-10--8-----8-10-11--------------------|
-------------------------------------------------11----------------------------|
                                       pm....................

-------------------------------------------------------------------------------|
-----------/8-6-----/13-11------16~--pb18r16-15-------15-16--18---16p15--------|
--/8-7-------------------------------------------------------------------17----|
---------------------------------------------------17--------------------------|
-------------------------------------------------------------------------------|
-------------------------------------------------------------------------------|


-------------------------------------------------------------------------------|
---------------18b20-18--16-------------------------------13---------13-15-----|
-pb19r17--15------------------13~--13--12-------12-13-15-----13-15-------------|
---------------------------------------------15--------------------------------|
-------------------------------------------------------------------------------|
-------------------------------------------------------------------------------|

                                             pm..............................

---------------------------/18--15-16--18-16~----------------------------------|
-----13-15-16--13-15-16--------------------------------------------------------|
-15----------------------------------------------8~-7-8-10-10/12--8------------|
------------------------------------------------------------------------/8-----|
----------------------------------------------------------------------------10-|
-------------------------------------------------------------------------------|
pm.......................

-----------------------------------------------15--13h15p13--11h13p11-10h11p11-|
-------------------------------------------------------------------------------|
---------7--8-10---8p7--------------7-8/10--8----------------------------------|
-----9------------------10---8--10---------------------------------------------|
-10----------------------------------------------------------------------------|
-------------------------------------------------------------------------------|


--8h10p8--6---------------------------------------------------------------------|
--------------7~---16~-15-16-18--pr20r18--16----15-16-------15---18-16-15----15-|
----------------------------------------------------------16--------------17----|
--------------------------------------------------------17----------------------|
--------------------------------------------------------------------------------|
--------------------------------------------------------------------------------|

---------15-16-18-15-16-18------/20--16-18-20--/22--18-20-22------20b22r22-19~~-|
-16--18---------------------------------------------------------x---------------|
---------------------------------------------------------------x----------------|
--------------------------------------------------------------x-----------------|
--------------------------------------------------------------------------------|
--------------------------------------------------------------------------------|
Suggest correction
What's this?
You can suggest a correction to this tab. Community and Mods will review your correction and vote to approve or reject it.
comments
print report bad tab
4 comments total. Showing first comments.
0 reply
Ratt n' Roll 528 wrote on May 27 2008, 02:49 pm

Thank you so much, I love this song, and this solo kicks ass. Thanks for tabbing it-I haven't played it yet but it looks good.

0 reply
Ratt n' Roll 528 wrote on May 31 2008, 08:29 pm

I just mastered this solo, memorized it too. It sounds perfect when I play it, thanks alot.

0 reply
rix1000 11 wrote on May 4 2013, 09:11 am

Thank you for the great tab! There are 2 typos however in the first line and in the 2nd from bottom.


-------------------------------------------------------------------------------|
----------------9b11--11r9--8--9-8h9p8-----------------------------------------|
----------7-8-----------------------------10---8h10p8---7---------------7------|
------10--------------------------------------------------10----8--10----------|
-------------------------------------------------------------------------------|
-------------------------------------------------------------------------------|
pm........

-------------------------------------------------------------------------------|
-------------------------------------------------------------------------------|
--8/10----8p7------------------------------------------------------------------|
----------------10--8--8/6---8/10--8------------------------8-----/10-8--------|
---------------------------------------11-10--8-----8-10-11--------------------|
-------------------------------------------------11----------------------------|
pm....................

-------------------------------------------------------------------------------|
-----------/8-6-----/13-11------16~--pb18r16-15-------15-16--18---16p15--------|
--/8-7-------------------------------------------------------------------17----|
---------------------------------------------------17--------------------------|
-------------------------------------------------------------------------------|
-------------------------------------------------------------------------------|

-------------------------------------------------------------------------------|
---------------18b20-18--16-------------------------------13---------13-15-----|
-pb19r17--15------------------13~--13--12-------12-13-15-----13-15-------------|
---------------------------------------------15--------------------------------|
-------------------------------------------------------------------------------|
-------------------------------------------------------------------------------|

pm..............................

---------------------------/18--15-16--18-16~----------------------------------|
-----13-15-16--13-15-16--------------------------------------------------------|
-15----------------------------------------------8~-7-8-10-10/12--8------------|
------------------------------------------------------------------------/8-----|
----------------------------------------------------------------------------10-|
-------------------------------------------------------------------------------|
pm.......................

-----------------------------------------------15--13h15p13--11h13p11-10h11p11-|
-------------------------------------------------------------------------------|
---------7--8-10---8p7--------------7-8/10--8----------------------------------|
-----9------------------10---8--10---------------------------------------------|
-10----------------------------------------------------------------------------|
-------------------------------------------------------------------------------|

--8h10p8--6---------------------------------------------------------------------|
--------------9~---16~-15-16-18--pr20r18--16----15-16-------15---18-16-15----15-|
----------------------------------------------------------16--------------17----|
--------------------------------------------------------17----------------------|
--------------------------------------------------------------------------------|
--------------------------------------------------------------------------------|

---------15-16-18-15-16-18------/20--16-18-20--/22--18-20-22------20b22r22-19~~-|
-16--18---------------------------------------------------------x---------------|
---------------------------------------------------------------x----------------|
--------------------------------------------------------------x-----------------|
--------------------------------------------------------------------------------|
--------------------------------------------------------------------------------|

guest
You may want to rate the tab now too:
select rating
Please do not post tabs as comments. Select "correction" instead!