Oops, an error
Loading. Please wait.

Endless Rain Tab

version 1
version 1

Whole song

21,758 views 30 this week
no commentswrite comment
1 2 3 4 5
accurate
x 4
add to favorites
launch autoscroll
font size
0
reset
how to read this tab
guitar tuner
Autoscroll
slow
fast
+/-
esc
set tempo
stop
Help us to improve Ultimate-Guitar.com Take our survey!
×
X Japan Endless Rain 
Sony Music 1989
Tuning: Half Step Down

Intro 
  C        G         F       G
|-0---0------------|-----------------|
|-1---1----3---3---|-1---1---3---3---|
|---0---0--4---4---|-2---2---4---4---|
|------------5---5-|---3---3---5---5-|
|------------------|-----------------| 
|------------------|-----------------|X2

  F                  F       G             
|---------1---5----|-----------------0---|
|-----1---1---6----|-----1---3-----3---6-|
|-2---2-----2---5--|-2---2---4---4-------|
|-3-----3----------|-3-----3---5---------|
|---3--------------|---3-----------------|
|------------------|---------------------|

  F       Csus4     F       Csus4      
|-1---1---0---0---|-1---1---0---0---|
|-1---1---1---1---|-1---1---1---1---|
|---2---2---2---2-|---2---2---2---2-|
|-----------------|-----------------|
|-----------------|-----------------|
|-----------------|-----------------| 


Verse

  C                 G                 Am                F       G
|-----------------|-----------------|-----------------|-----------------|
|---------1-------|---------0-------|---------1-------|-----------------|
|---------0---0---|---------0---0---|---------2---2---|---------0---0---|
|-2-----2---2-2---|-0-----0---0-0---|-2-----2---2-2---|-3---3---0---0---|
|-3---3---------3-|-2---2---------2-|-3-0-3---------3-|-3---5---3---2---|
|---3-------------|---3-------------|-----------------|---5---5---3---3-|
1 - I'm walking in the rain yuku ate mo naku kizutsuita karada nurashi
2 - nemuri wa mayaku tohou ni kureta kokoro o shizuka ni tokasu


  C                 G                 Am      F         G
|-----------------|-----------------|-----------------|-----------------|
|---------1-------|---------0-------|-----------------|-----------------|
|---------0---0---|---------0---0---|---------2---2---|-0---0---0---0---|
|-2-----2---2-2---|-0-----0---0-0---|-2-----2-3---3---|-0---0---0---0---|
|-3---3---------3-|-2---2---------2-|-3---3-----3---3-|-3---3---2---2---|
|---3-------------|---3-------------|---5-------------|---3---3---3---3-|
1 - karamitsuku koori no zawameki koroshi tsuzukete
2 - mai agaru ai o odorasete furueru karada o kioku no





  F       G         C       E         F       G         G
|-----------------|-----------------|-----------------|-----------------|
|-----------------|-------------0---|-----------------|-----------------|
|-----------------|-0---0---1---1---|-----------------|-----------------|
|-3---3---5---5---|-2---2---2-----2-|-3---3---5---5---|-3---3---2---2---|
|-3---3---5---5---|---3---3---2-----|-3---3---5---5---|-3---3---3---3---|
|---5---5---7---7-|-----------------|---5---5---7---7-|---3---3---3---3-|
1 - samayou itsu made mo, until I can forget your love
2 - bara ni tsutsumu I keep my love for you to myself


*|-1---1---0---0---| 
 |-1---1---1---1---|
 |---0---0---0---0-|  This part is only played in the
 |-----------------|  interval from verse 1 to 2
 |-----------------|
 |-----------------| 
 

Chorus

  C                 Am                F       C         F      G
|-----------------|-----------------|-----------------|-----------------|
|-----------------|-----------------|-----------------|-----------------|
|-----------------|-----------------|---------0---0---|-2---2---0---0---|
|-2---2---0---0---|-2---2---2---2---|-3---3---2---2---|-3---3---0---0---|
|-3---3---2---2---|-3---3---3---3---|-3---3-----3---3-|---3---3-3---2---|
|---3---3---3---3-|---5---5---5---5-|---5---5---------|-----------3---3-|
Endless rain, fall on my heart kokoro no kizu ni

  C                 Am                F       C         F      G
|-----------------|-----------------|-----------------|-----------------|
|-----------------|-------1-1-------|-----------------|-----------------|
|-----------------|-------2-2-------|-2---2---0---0---|-2---2---0---0---|
|-2---2---0---0---|-2---2-------2---|-3---3---2---2---|-3---3---0---0---|
|-3---3---2---2---|-3-0-3-------3-0-|---3---3---3---3-|---3---3---2---2-|
|---3---3---3---3-|-----------------|-----------------|-----------------|
Let me forget all of the hate, all of the sadness


Piano Solo

  C                           G 
|---------------------------|--------------------|
|-------------------1-----1-|-0-----0-0----0-----|
|------------0----0-----0---|-0---0---0----12----|
|-2-----2-------2-----2-----|-0-0-----12-0-12----|
|-3---3-------3-------------|-----------------11-|
|---3-----------------------|--------------------|

  Am                              F        G
|---------------------------------|-------0----------|
|---------------------------------|-------1--3-----3-|
|-------------------------------0-|-------2--4-4-5---|
|-10-------9—---10-9-7-9-10-9-7---|-3-----3--5-------|
|-12----12------------------------|---0-3------------|
|----12---------------------------|------------------|
  C                      G
|--------------0-----0-|-3-----7---8--10-|
|-1----1-----1-----1---|-3-----8--10--12-|
|-0--------0-----0-----|-4---------------|
|-2------2-------------|-----------------|
|----------------------|-----------------|
|----------------------|-----------------|

  Am                             F 
|-8------12----------------------------------|
|-10-------13----13--------------------------|
|-9----------14----14--14--------------------|
|--------------------14--14--14-----10-------|
|--------------------------15--15/12--12-----|
|---------------------------------------12---|

        G           F       G            C       E
|-----------------|---------3-3-0---|----0----0-------|
|-------3---5---3-|-1-----1-3-3-0---|-0--1----0--0----|
|-------4---4---4-|-2----2--5-4-0---|------0--1--7----|
|-------5---5---5-|-3---3-----------|------------6----|
|-----------------|-----------------|------------7----|
|-10--------------|-----------------|-----------------|
        It's a dream, I'm in love with you, madoromi dakishimete

|-------------3-7-|--8----8-------------|
|-1----1--1---3-8-|--8----8----8--------|
|-2---2---2---4-7-|--10---10---9--------|
|-3--3----3-------|------------10-------|
|-----------------|------------------10-|
|-----------------|----------------8----|
 madoromi dakishimete



(PLAY CHORUS)



Bridge
  Ab            
|-------------|-------------|-------------|-------------|
|-------------|-------------|-------------|-------------|
|-1--1--1--1--|-3--3--3--3--|-1--1--1--1--|-3--3--3--3--|
|-1--1--1--1--|-3--3--3--3--|-1--1--1--1--|-3--3--3--3--|
|-3--3--3--3--|-5--5--5--5--|-3--3--3--3--|-5--5--5--5--|
|-------------|-------------|-------------|-------------|
I awake from my dream... I can't find my way without you...









Guitar Solo

|-------------------|-----------------|-----------------|-----------------|
|-------------------|-----------------|-----------------|-----------------|
|-0---0-------------|-0---0---0---0---|-----------------|-----------------|
|-1---1----3---3----|-1---1---1---1---|-1---1---3---3---|---------0---0---|
|---1---1--5---5----|---3---3---3---3-|-3---3---1---1---|-3---3---1---1---|
|------------6---6--|-----------------|---4---4---3---3-|-4-1-4-1---1---1-|x2

|-----------------|-----------------|
|-----------------|-----------------|
|-1---1-----------|-0---0---0---0---|
|-3---3---3---3---|-1---1---0---0---|
|---4---4-5---5---|---1---1---2---2-|
|-----------6---6-|-----------------|x3

|-----------------|---------------3-|-----------3-----| 
|-----------------|-----------1-3---|-3------3--3-----|
|-1---1-----------|-0-------0-------|-4----4----4-----|
|-3---3---3---3---|-------0---------|-5--5------------|
|---4---4-5---5---|-----3-----------|-----------------|
|-----------6---6-|---3-------------|-----------------|


*(REPEAT VERSE THEN CHORUS AND FADE)

This is the piano translation of endless rain onto guitar tabs.
Hope you guys like it. Any questions just email me @ 

victor_van_dam@hotmail.com

P.S. yoshiki is the best piano-drummer the world has ever known...
Suggest correction new What's this?
You can suggest a correction to this tab. Community and Mods will review your correction and vote to approve or reject it.
comments
print report bad tab
guest
You may want to rate the tab now too:
select rating
Please do not post tabs as comments. Select "correction" instead!