Oops, an error
Loading. Please wait.

Longing bass

version 1
version 1

Whole song

Interactive

by X Japan
519 views 1 this week
no commentswrite comment
1 2 3 4 5
3 more votes to show rating
add to favorites
×
Save as Personal and add changes to this tab that will be seen only by you. Learn more ›
×
You can save this tab as Personal to edit and correct it or add notes. All changes will be seen only by you. Learn more »
launch autoscroll
font size
0
reset
guitar tuner
edit
Autoscroll
slow
fast
+/-
esc
set tempo
stop
#----------------------------------PLEASE NOTE---------------------------------#
#This file is the author's own work and represents their interpretation of the #
#song. You may only use this file for private study, scholarship, or research. #
#------------------------------------------------------------------------------#

LONGING (Bassline)
As recorded by X Japan


	



Gtr I (E A D G) - 'Fretless Bass'
Gtr II (E A D G B E) - 'Piano Left'
Gtr III (E A D G B E) - 'Piano Right'

  Q=78
 4/4
  Gtr I
  W          W          W          +W
|----------|----------|-3--------|-(3)----|
|----------|----------|----------|--------|
|----------|----------|----------|--------|
|----------|----------|----------|--------|


  W          +W           W          +W
|----------|------------|-3--------|-(3)----|
|-1--------|-(1)--------|----------|--------|
|----------|------------|----------|--------|
|----------|------------|----------|--------|


  W          W          W          W
|----------|----------|-3--------|------|
|-1--------|----------|----------|------|
|----------|----------|----------|-1----|
|----------|----------|----------|------|
|
| Gtr II
| W          W          W          W
|----------|----------|-8--------|-6----|
|----------|----------|----------|------|
|----------|----------|----------|------|
|----------|----------|----------|------|
|----------|----------|----------|------|
|----------|----------|----------|------|


  W          W          H    H      H    H
|-3--------|-2--------|-0---------|-----------|
|----------|----------|------3----|-1----3----|
|----------|----------|-----------|-----------|
|----------|----------|-----------|-----------|


  W          W          H    H      W
|-3--------|-2--------|-1----0----|------|
|----------|----------|-----------|-3----|
|----------|----------|-----------|------|
|----------|----------|-----------|------|


  H    H      W          H    H      H    H
|-1----0----|----------|-1----0----|-1---------------------|
|-----------|-3--------|-----------|-----------------------|
|-----------|----------|-----------|-----------------------|
|-----------|----------|-----------|-----------------------|
|
| Gtr II
| W           W          W           H    Q       S  S S S
|-----------|----------|-----------|-----------------------|
|-----------|----------|-----------|-----------------------|
|-----------|----------|-----------|---------------------5-|
|-----------|----------|-----------|-------------------5-8-|
|-----------|----------|-----------|-----------------6-6---|
|-----------|----------|-----------|--------------8-10-----|
|
| Gtr III
| W           W          W           H    S S S S E    E
|-----------|----------|-----------|-----------------------|
|-----------|----------|-----------|-----------------------|
|-----------|----------|-----------|------------1-3--------|
|-----------|----------|-----------|--------0-3-5----------|
|-----------|----------|-----------|------1-3-6------------|
|-----------|----------|-----------|-----------------------|


  Gtr II
  E   S S  S  S S S  E  E E E   E.     S  S  S S S  E  E E E
|-----------------------------|---------------------3--------|
|-4------------------4----3---|-4-------------------4----6---|
|-3-------------0-3--3----3---|-3--------------0-3--3----7---|
|-5-----------1------5--1-5-1-|-5------------1---------5-8-5-|
|----------1------------------|-----------1------------------|
|-------3---------------------|--------3---------------------|
|
| Gtr III
| S S E   +Q        +H          S  S E   +Q        +H
|-----------------------------|------------------------------|
|-----------------------------|------------------------------|
|-----------------------------|------------------------------|
|-----1---(1)-------(1)-------|------1---(1)-------(1)-------|
|---1-------------------------|----1-------------------------|
|-----------------------------|------------------------------|


  E.     S  S  S S S  E  E E E
|-------------------------------|
|-4-------------------4----3----|
|-5--------------0-3--3----3----|
|-5------------1---------5---5--|
|-----------1-------------------|
|--------3----------------------|
|
| S  S E   +Q        +H
|-------------------------------|
|-------------------------------|
|-------------------------------|
|-------------------------------|
|------3---(3)-------(3)--------|
|----3--------------------------|


  E.     S  S  S S S  E  E E E
|---------------------3--------|
|-4-------------------4----6---|
|-3--------------0-3--3----7---|
|-5------------1---------5-8-5-|
|-----------1------------------|
|--------3---------------------|
|
| S  S E   +Q        +H
|------------------------------|
|------------------------------|
|------------------------------|
|------------------------------|
|------3---(3)-------(3)-------|
|----3-------------------------|


  E.     S  S  S S S  E  E E E   E.     S  S  S S S  E  E E E
|------------------1--4----3---|-4----------------1--1---------|
|-4--------------1----6------1-|-6--------------1----1----4----|
|-5------------1---------5-----|-5------------1------1--1-5----|
|-6---------3------------------|-----------3--------------6-6--|
|--------3---------------------|--------3----------------------|
|------------------------------|-------------------------------|
|
| S  S E   +Q        +H          S  S E   +Q        +H
|------------------------------|-------------------------------|
|------------------------------|-------------------------------|
|------------------------------|-------------------------------|
|------3---(3)-------(3)-------|------3---(3)-------(3)--------|
|----3-------------------------|----3--------------------------|
|-1----------------------------|-1-----------------------------|


  E.     S  S  S S S  E  E E E
|------------------------------|
|-6-------------------3----3---|
|-7----------------3--3----3---|
|-8------------0-3-------3---3-|
|-----------1------------------|
|--------1---------------------|
|
| S  S E   +Q        +H
|------------------------------|
|------------------------------|
|------------------------------|
|------------------------------|
|------1---(1)-------(1)-------|
|----1-------------------------|


  E.     S  S  S S S  E  E E E   E.     S  S  S S S  E  E E E
|---------------------4----4---|-------------------------------|
|-3-------------------6----6---|-4-------------------4----3----|
|-3----------------3--7--3-7-3-|-3--------------0-3--3----3----|
|-3------------0-3-------------|-5------------1------5--1-5-1--|
|-----------1------------------|-----------1-------------------|
|--------1---------------------|--------3----------------------|
|
| S  S E   +Q        +H          S  S E   +Q        +H
|------------------------------|-------------------------------|
|------------------------------|-------------------------------|
|------------------------------|-------------------------------|
|------------------------------|------1---(1)-------(1)--------|
|------1---(1)-------(1)-------|----1--------------------------|
|----1-------------------------|-------------------------------|


  E.     S  S  S S S  E  E E E
|---------------------3--------|
|-4-------------------4----6---|
|-3--------------0-3--3----7---|
|-5------------1---------5-8-5-|
|-----------1------------------|
|--------3---------------------|
|
| S  S E   +Q        +H
|------------------------------|
|------------------------------|
|------------------------------|
|------1---(1)-------(1)-------|
|----1-------------------------|
|------------------------------|


  E.     S  S  S S S  E  E E E   E.     S  S  S S S  E  E E E
|------------------------------|---------------------3---------|
|-4-------------------4----3---|-4-------------------4----6----|
|-5--------------0-3--3----3---|-3--------------0-3--3----7----|
|-5------------1---------5---5-|-5------------1---------5-8-5--|
|-----------1------------------|-----------1-------------------|
|--------3---------------------|--------3----------------------|
|
| S  S E   +Q        +H          S  S E   +Q        +H
|------------------------------|-------------------------------|
|------------------------------|-------------------------------|
|------------------------------|-------------------------------|
|------------------------------|-------------------------------|
|------3---(3)-------(3)-------|------3---(3)-------(3)--------|
|----3-------------------------|----3--------------------------|


  E.     S  S  S S S  E  E E E   E.     S  S  S S S  E  E E E
|------------------1--4----3---|-4----------------1--1--------|
|-4--------------1----6------1-|-6--------------1----1----4---|
|-5------------1---------5-----|-5------------1------1--1-5---|
|-6---------3------------------|-----------3--------------6-6-|
|--------3---------------------|--------3---------------------|
|------------------------------|------------------------------|
|
| S  S E   +Q        +H          S  S E   +Q        +H
|------------------------------|------------------------------|
|------------------------------|------------------------------|
|------------------------------|------------------------------|
|------3---(3)-------(3)-------|------3---(3)-------(3)-------|
|----3-------------------------|----3-------------------------|
|-1----------------------------|-1----------------------------|


  E.     S  S  S S S  S  S S S S S S S
|------------------------------1-----1---|
|-6-------------------3------3-----3-----|
|-7----------------3-------3-----3-------|
|-8------------0-3-------3---------------|
|-----------1----------------------------|
|--------1-------------------------------|
|
| S  S E   +Q        +H
|----------------------------------------|
|----------------------------------------|
|----------------------------------------|
|----------------------------------------|
|------1---(1)-------(1)-----------------|
|----1-----------------------------------|


  Gtr I
   W           Q.     E   +E  E +E  E
|------------|--------3---(3)-8-(8)---|
|------------|-1--------------------8-|
|------------|------------------------|
|------------|------------------------|
|
| Gtr II
|  W           Q   E.   S  Q     Q
|--6---------|------------------------|
|--6---------|------------------------|
|--7---------|------------------------|
|------------|-3---1----1--1-----0----|
|------------|-1---1----1--1-----1----|
|------------|-3---3----3--3-----3----|
|
| Gtr III
| +W           W
|------------|------------------------|
|------------|------------------------|
|------------|------------------------|
|------------|------------------------|
|-(1)--------|------------------------|
|------------|------------------------|


  Q.         E   +E   E  E  E   Q.     E   +E  E +E  E
|------------------------8----|-------------------------|
|---------------------8-------|----------------6-(6)----|
|-6----------6---(6)--------6-|--------6---(6)-------6--|
|-----------------------------|-4-----------------------|
|
| Q      S S S S  E   E  E  E   Q   E.   S  Q     Q
|------------3-6--------------|-------------------------|
|------------4---18-----------|-------------------------|
|--------0-3-----20--20-19-20-|-3---3----3--3-----0-----|
|-1---------------------------|-1---1----1--1-----1-----|
|-1--------------20--18-------|-3---3----3--3-----3-----|
|-3---------------------22-23-|-------------------------|
|
| E  S S Q       +H             W
|-----------------------------|-------------------------|
|--------1-------(1)----------|-------------------------|
|----0-3----------------------|-------------------------|
|-----------------------------|-------------------------|
|-----------------------------|-------------------------|
|-----------------------------|-4-----------------------|


  Q.         E   +E  E  E E    Q.      E    +E  E +E   E
|---------------------------|----------------------------|
|-----------------------6---|-------------------3-(3)----|
|--------------------6------|----------3----(3)--------3-|
|-4----------4---(4)------3-|--1-------------------------|
|
| Q      S S S S  Q     Q      Q    E.    S  Q     E   E
|-----------------8----10---|-11-------------------------|
|------------1-4--9---------|----------------------------|
|-1----------1----------7---|--8----8--------------------|
|-1--------1-----10---------|------10----10-10----10--10-|
|-3------3------------------|------11----11-11----11--11-|
|---------------------------|------------13-13----11--13-|
|
| E  S S Q       +H            W
|---------------------------|----------------------------|
|---------------------------|----------------------------|
|--------1-------(1)--------|----------------------------|
|------1--------------------|----------------------------|
|----3----------------------|----------------------------|
|-4-------------------------|--1-------------------------|


    Q.         E   +E   E   E   E    Q.     E +E  E +E  E
|---------------------------------|---------------3-(3)-----|
|-----------------------3---------|---------3-(3)-------3---|
|--------------3---(3)------3-----|--1----------------------|
|---1---------------------------1-|-------------------------|
|
|  +Q      S S S S  E   E  +E   E    Q    Q    Q     Q
|----------------4-13--11-(11)-13-|-11----------------------|
|--------------6---13-------------|-------6----6-----6------|
|--------------5---10---8--(8)-10-|--8----8----8-----8------|
|-(10)-------6--------------------|------10---10----10------|
|-(11)-----8----------------------|-------------------------|
|-(13)----------------------------|-------------------------|
|
|   E  S S Q       +H                W
|---------------------------------|-------------------------|
|----------1-------(1)------------|-------------------------|
|--------1------------------------|-------------------------|
|------3--------------------------|-------------------------|
|---------------------------------|--1----------------------|
|---1-----------------------------|-------------------------|


  Q.       E E  E  +Q       Q.        E    +E  E +E   E
|------------------------|------------3----(3)-8-(8)----|
|------------------------|--1-------------------------8-|
|-1--------1-1--1--(1)---|------------------------------|
|------------------------|------------------------------|
|
| E  E +E  E E  E  +E  E    E   E  E.    S  Q     E   E
|----------6-8-10-(10)---|------------------------------|
|------------------------|------------------------------|
|-7--------7-8-10-(10)---|-10-----10-----8--8-----7---8-|
|-8----------------------|--8------8-----8--8-----8---8-|
|-8--5-(5)-------------8-|-----10-------10-10----10--10-|
|------------------------|------------------------------|
|
| W                         W
|------------------------|------------------------------|
|------------------------|------------------------------|
|------------------------|------------------------------|
|------------------------|------------------------------|
|-1----------------------|------------------------------|
|------------------------|------------------------------|


    Q.        E +E  E  E  E    Q.     E   +E  E +E  E
|----------------------8----|--------------------------|
|-------------------8-------|-----------------6-(6)----|
|---6---------6-(6)-------6-|---------6---(6)-------6--|
|---------------------------|--4-----------------------|
|
|  +Q.        E  E  E  E  E    Q   E.   S  Q     E  E
|---------------------------|--------------------------|
|---------------------------|-11-----------------------|
|--(8)----------10--8-10-12-|--------------------------|
|--(8)--------8--8--6--8-10-|--8---8----6--6-----5--6--|
|-(10)-------10-------------|------6----6--6-----6--6--|
|------------11-------------|------8----8--8-----8--8--|
|
|   E  S S Q    +H             W
|---------------------------|--------------------------|
|----------1----(1)---------|--------------------------|
|------0-3------------------|--------------------------|
|---------------------------|--------------------------|
|---------------------------|--------------------------|
|---------------------------|--4-----------------------|


   Q.         E   +E   E E   E      Q.     E   +E  E +E  E
|--------------------------------|-------------------------|
|------------------------6-------|-----------------8-(8)---|
|----------------------6---------|---------8---(8)-------8-|
|--4----------4---(4)--------4---|--6----------------------|
|
| +Q      S S S S  E   E S S S S    Q   E.   S  Q     Q
|-----------------10--11---------|-13----------------------|
|---------------4--9-----------4-|-------------------------|
|-------------5----7---8-----5---|-13----------------------|
|-(6)---------6--------------6---|-15---3----3--3-----3----|
|-(6)-------6--------------6-----|------5----5--5-----5----|
|-(8)-----8--------------8-------|------6----6--6-----6----|
|
|  E  S S Q       +H                W
|--------------------------------|-------------------------|
|--------------------------------|-------------------------|
|---------1-------(1)------------|-------------------------|
|-------1------------------------|-------------------------|
|-----3--------------------------|--1----------------------|
|--4-----------------------------|-------------------------|


  Q.    E +E  E E E   Q.     E   +E  E +E  E
|-------------------|----------------8-(8)-----|
|---------------8---|--------8---(8)-------8---|
|-------------8-----|-6------------------------|
|-6-----6-(6)-----6-|--------------------------|
|
| Q   Q    Q    Q     Q   E.   S  Q     E  E
|-------------------|--------------------------|
|-------------------|--------------------------|
|-------------------|-1---1----0--0--------0---|
|-3---3----3----3---|-1---1----1--1-----3--1---|
|-5---5----5----5---|-1---1----1--1-----6--1---|
|-6---6----6----6---|-------------------6------|
|
| W                   W
|-------------------|--------------------------|
|-------------------|--------------------------|
|-------------------|--------------------------|
|-------------------|--------------------------|
|-1-----------------|--------------------------|
|-------------------|--------------------------|


   Q   Q   Q  Q    H     E E +Q     Q  Q  E E +S  E.   H     E E +Q
|----------------|----------------|------------------|----------------|
|----------------|----------------|------------------|----------------|
|--6---6---6--5--|-3-----1-1-(1)--|------------------|----------------|
|----------------|----------------|-4--4--4-4-(4)-6--|-8-----6-6-(6)--|
|
| +Q.    E Q  Q    Q  Q  Q    Q     Q  Q  Q    S  E.   Q  Q  Q    Q
|----------------|----------------|------------------|----------------|
|----------------|----------------|------------------|----------------|
|-(0)----0-0-----|-3--3-----------|------------------|-0--0-----------|
|-(1)----1-1--3--|-5--5--3----3---|-1--1--1----1--3--|-1--1--3----3---|
|-(1)----1-1--5--|-6--6--5----5---|-3--3--3----3--5--|-3--3--5----5---|
|-------------6--|-------6----6---|-4--4--4----4--6--|-------6----6---|
|
|  H       Q  Q    H     H          H     Q    S  E.   H     H
|----------------|----------------|------------------|----------------|
|----------------|----------------|------------------|----------------|
|----------------|----------------|------------------|----------------|
|----------1--0--|----------------|------------------|----------------|
|----------------|-3-----1--------|------------------|----------------|
|----------------|----------------|-4-----4----4--6--|-8-----6--------|


  Q  Q  E E +S  E.   H     E E +Q     Q  Q  E E +Q     H     E E +Q
|------------------|----------------|----------------|----------------|
|------------------|----------------|----------------|----------------|
|------------------|----------------|----------------|-3-----1-1-(1)--|
|-4--4--4-4-(4)-6--|-8-----6-6-(6)--|-4--4--4-4-(4)--|----------------|
|
| Q  Q  Q    S  E.   Q  Q  Q    Q     Q  Q  Q    Q     Q  Q  Q    Q
|------------------|----------------|----------------|----------------|
|------------------|----------------|----------------|----------------|
|-0--0--0----0-----|-0--0-----------|----------------|-0--0-----------|
|-1--1--1----1--3--|-1--1--3----3---|-1--1--1----1---|-1--1--3----3---|
|-3--3--3----3--5--|-3--3--5----5---|-3--3--3----3---|-3--3--5----5---|
|-4--4--4----4--6--|-------6----6---|-4--4--4----4---|-------6----6---|
|
| H     Q    S  E.   H     H          W                H     H
|------------------|----------------|----------------|----------------|
|------------------|----------------|----------------|----------------|
|------------------|----------------|----------------|----------------|
|------------------|----------------|----------------|----------------|
|------------------|----------------|----------------|-3-----1--------|
|-4-----4----4--6--|-8-----6--------|-4--------------|----------------|


  H     Q  S E S   Q  E. S S S E +E  S S
|----------------|-----------------------|
|--------------8-|-------------------6-8-|
|------------8---|-6--6----6---6-(6)-----|
|-4-----6--6-----|-------6---6-----------|
|
| Q  Q  Q  Q       Q  Q    Q      Q
|----------------|-----------------------|
|----------------|-----------------------|
|-0--0-----------|-0--0----0-------------|
|-1--1--3--3-----|-1--1----1------3------|
|-3--3--5--5-----|-1--1----1------5------|
|-4--4--6--6-----|----------------6------|
|
| H     H          W
|----------------|-----------------------|
|----------------|-----------------------|
|----------------|-----------------------|
|----------------|-----------------------|
|----------------|-----------------------|
|-4-----6--------|-----------------------|


  Q.    E Q  Q    Q..    S S S E +E  S S
|-8-------------|-------------------------|
|-------8-------|--------------------3-5--|
|---------6--5--|-3--------3---3-(3)------|
|---------------|--------3---3------------|
|
| Q   Q   Q  Q    Q    Q   Q      Q
|---------------|-------------------------|
|---------------|-------------------------|
|-0---0---0-----|-0----0---0--------------|
|-1---1---1--3--|-1----1---1------3-------|
|-1---1---1--5--|-1----1---1------5-------|
|------------6--|-----------------6-------|
|
| W               W
|---------------|-------------------------|
|---------------|-------------------------|
|---------------|-------------------------|
|---------------|-------------------------|
|---------------|-------------------------|
|---------------|-8-----------------------|


  Q.    E H       Q..    S S S E +E  E   Q.    E Q  Q    Q.    E Q.    E
|-5-------------|----------------------|---------------|---------3--------|
|-------5-------|----------3---3-(3)---|---------3-----|-------3-------3--|
|---------3-----|--------3---3-------3-|-------3-------|-1----------------|
|---------------|-1--------------------|-1----------1--|------------------|
|
| Q   Q   Q  Q    Q    Q   Q      Q      Q   Q   Q  Q    Q   Q   Q   Q
|---------------|----------------------|---------------|------------------|
|---------------|----------------------|---------------|------------------|
|-0---0---0-----|-1----1---1------0----|-1---1---1--1--|------------------|
|-1---1---1--3--|-1----1---1------1----|-1---1---1--1--|-3---3---3---3----|
|-1---1---1--5--|-3----3---3------3----|-3---3---3--3--|-5---5---6---6----|
|------------6--|----------------------|---------------|-6---6---6---6----|
|
| W               W                      W               W
|---------------|----------------------|---------------|------------------|
|---------------|----------------------|---------------|------------------|
|---------------|----------------------|---------------|------------------|
|---------------|----------------------|---------------|------------------|
|---------------|----------------------|---------------|-1----------------|
|-8-------------|-1--------------------|-1-------------|------------------|


  H     H       Q.    S S E E E E   Q.    E E E Q    Q.    S S E E E E
|-------------|-------------------|----------------|-------------------|
|-------------|-------------------|----------------|-------------------|
|-1-----1-----|-4-----4-5-6-6---6-|-8-------8-8-6--|-4-----4-5-6-6---6-|
|-------------|-------------------|-------8--------|-------------------|
|
| Q  Q  Q  Q    Q   Q     Q   Q     Q   Q   Q   Q    Q   Q     Q   Q
|-------------|-------------------|----------------|-------------------|
|-------------|-------------------|-1---1---1------|-------------------|
|-------------|-1---1-----3---3---|-1---1---1---3--|-1---1-----3---3---|
|-3--3--3--3--|-3---3-----5---5---|-3---3---3---5--|-3---3-----5---5---|
|-5--5--5--5--|-4---4-----6---6---|-------------6--|-4---4-----6---6---|
|-6--6--6--6--|-------------------|----------------|-------------------|
|
| W             H         H         H       Q   Q    H         H
|-------------|-------------------|----------------|-------------------|
|-------------|-------------------|----------------|-------------------|
|-------------|-------------------|----------------|-------------------|
|-------------|-------------------|----------------|-------------------|
|-1-----------|-4---------6-------|-8-------8---6--|-4---------6-------|
|-------------|-------------------|----------------|-------------------|


  Q.    S  S  Q   Q    Q.    E  Q.     E
|------------10------|-------------------|
|-------8-10---------|-------------------|
|-8------------------|-------------------|
|----------------11--|-9-----9-11-----11-|
|
| Q   Q       Q   Q    Q   Q    Q   Q
|--------------------|-------------------|
|-1---1-------1------|-------------------|
|-1---1-------1---3--|-1---1----3---3----|
|-3---3-------3---5--|-3---3----5---5----|
|-----------------6--|-4---4----6---6----|
|--------------------|-------------------|
|
| H           Q   Q    H        H
|--------------------|-------------------|
|--------------------|-------------------|
|--------------------|-------------------|
|--------------------|-------------------|
|-8-----------8---6--|-4--------6--------|
|--------------------|-------------------|


   Q.     E  E  E  +Q      Q.     E  E  E  E  E
|-----------------------|------------------------|
|-----------------------|------------------------|
|-----------------------|------------------------|
|-12-----12-13-13-(13)--|-14-----14-14-14-14-14--|
|
|  Q   Q     Q      Q      Q   Q     Q     Q
|-----------------------|------------------------|
|--1---1-----1------1---|--2---2-----2-----2-----|
|--0---0-----1------1---|--3---3-----3-----3-----|
|--2---2-----3------3---|--4---4-----4-----4-----|
|-----------------------|------------------------|
|-----------------------|------------------------|
|
|  H         H             W
|-----------------------|------------------------|
|-----------------------|------------------------|
|-----------------------|------------------------|
|-----------------------|------------------------|
|--7---------8----------|-10---------------------|
|-----------------------|------------------------|


   Q.    E E E E E   W                 +W                W
|----------1-1-1-1-|-----------------|-----------------|--------------------|
|--------1---------|-----------------|-----------------|--------------------|
|------------------|-1---------------|-(1)-------------|--------------------|
|-16---------------|-----------------|-----------------|--------------------|
|
|  Q   Q   Q   Q     E E E E E E E E    Q..   S Q  E E   Q.     E  E  E E E
|------------------|-----------------|-----------------|--------------------|
|--4---4---4---4---|---------1-----3-|-----------------|--------------------|
|--5---5---5---5---|-------3---3-----|--------3-3--2---|-3--------------0---|
|--6---6---6---6---|-----3-------3---|--3-----3-3--3---|-5---------0----0-3-|
|------------------|---5-------------|--3------------0-|-5------1-----1---5-|
|------------------|-6---------------|--5--------------|--------------------|
|
|  W                 W                  W                E  E Q   +H
|------------------|-----------------|-----------------|--------------------|
|------------------|-----------------|-----------------|--------------------|
|------------------|-----------------|-----------------|--------------------|
|------------------|-----------------|-----------------|------5---(5)-------|
|-11---------------|-1---------------|--0--------------|----5---------------|
|------------------|-----------------|-----------------|-3------------------|


  W               W
|---------------|-----------------------|
|---------------|-----------------------|
|---------------|-----------------------|
|---------------|-----------------------|
|
| Q  E E Q  E E   Q   +S  S S S Q   E E
|-----------1---|-------------------3-1-|
|-----------1-4-|-3---(3)-----3-3---3---|
|-----------2---|-3---(3)-----------3---|
|-5--5-5-3------|-3---(3)---3-----------|
|-5--5-5-3------|---------5-------------|
|-6--6-6-5------|-----------------------|
|
| H      H        E E  Q        E E Q
|---------------|-----------------------|
|---------------|-------------------3---|
|---------------|------3----------3-----|
|---------------|---3-----------3-------|
|---------------|-1---------------------|
|--------1------|-----------------------|


  W                     H       H
|---------------------|------------------|
|---------------------|------------------|
|---------------------|------------------|
|---------------------|-4-------3--------|
|
| Q.    S S +E  E Q     E E E E E E E E
|-1-------------------|------------------|
|-1-----1-1-(1)-------|------------------|
|-2-----2-2-(2)-------|------------------|
|-------3-3-(3)-------|-1-----------1----|
|---------------3-0---|-3---6---6---1----|
|---------------1-1---|---4-8-4-6-3---3--|
|
| Q   Q     +E  E E E   H       H
|---------------------|------------------|
|---------------------|------------------|
|---------------------|------------------|
|-----3-----(3)-------|------------------|
|-0-----------------0-|------------------|
|---------------------|-4-------3--------|


  Q.     E Q   E E   H       H         H       Q   E E   H       H
|------------------|-----------------|-----------------|-----------------|
|----------3-------|-----------------|-----------------|-----------------|
|--------3---------|-----------------|-----------------|-----------------|
|-1------------1-3-|-4-------3-------|-1-------1---1-3-|-4-------3-------|
|
| E  E E E E E E E   E E E E E E E E   E E E E E E E E   E E E E E E E E
|------------------|-----------------|-----------------|-----------------|
|------------------|-----------------|-----------------|-----------------|
|------------------|-----------------|-----------------|-----------------|
|-1----------------|-------------1---|-----------------|-1-----------1---|
|-3----6---6---6---|-6---6---6---1---|-3---3---3---3---|-3---6---6---1---|
|----4-8-4-8-4-8-4-|-8-4-8-4-6-3---3-|-4-1-4-1-4-1-4-1-|---4-8-4-6-3---3-|
|
| W                  H       H         W                 H       H
|------------------|-----------------|-----------------|-----------------|
|------------------|-----------------|-----------------|-----------------|
|------------------|-----------------|-----------------|-----------------|
|------------------|-----------------|-----------------|-----------------|
|------------------|-----------------|-----------------|-----------------|
|-1----------------|-4-------3-------|-1---------------|-4-------3-------|


  H       Q   S E   S   Q..    S S S E +E  E
|---------------------|----------------------|
|-------------8-------|--------------------8-|
|---------------8-----|-6--------6---6-(6)---|
|-4-------6---------6-|--------6---6---------|
|
| E E E E E E E   E     Q    Q   Q      Q
|---------------------|----------------------|
|---------------------|----------------------|
|---------------------|-0----0---0-----------|
|-1-------3---3-------|-1----1---1------3----|
|-3---6---5-1-5---1---|-1----1---1------5----|
|---4-8-4-------------|-----------------6----|
|
| H       H             W
|---------------------|----------------------|
|---------------------|----------------------|
|---------------------|----------------------|
|---------------------|----------------------|
|---------------------|----------------------|
|-4-------6-----------|----------------------|


  Q.    E Q  Q    Q..    S S S E +E  E
|-8-------------|----------------------|
|---------------|--------------------5-|
|---------6--5--|-3--------3---3-(3)---|
|-------6-------|--------3---3---------|
|
| Q   Q   Q  Q    Q    Q   Q      Q
|---------------|----------------------|
|---------------|----------------------|
|-0---0---0-----|-0----0---0-----------|
|-1---1---1--3--|-1----1---1------3----|
|-1---1---1--5--|-1----1---1------5----|
|------------6--|-----------------6----|
|
| W               W
|---------------|----------------------|
|---------------|----------------------|
|---------------|----------------------|
|---------------|----------------------|
|---------------|----------------------|
|---------------|-8--------------------|


  Q.    E H       Q..    S S S E +E  E   Q.    E Q  Q    Q..    S S S E +E  E
|-5-------------|----------------------|---------------|----------3---3-(3)---|
|---------------|----------3---3-(3)---|---------3-----|--------3---3-------3-|
|---------3-----|--------3---3-------3-|-------3-------|-1--------------------|
|-------3-------|-1--------------------|-1----------1--|----------------------|
|
| Q   Q   Q  Q    Q    Q   Q      Q      Q   Q   Q  Q    Q    Q   Q      Q
|---------------|----------------------|---------------|----------------------|
|---------------|----------------------|---------------|----------------------|
|-0---0---0-----|-1----1---1------0----|-1---1---1--1--|----------------------|
|-1---1---1--3--|-1----1---1------1----|-1---1---1--1--|-3----3---3------3----|
|-1---1---1--5--|-3----3---3------3----|-3---3---3--3--|-5----5---5------6----|
|------------6--|----------------------|---------------|-6----6---6------6----|
|
| W               W                      W               W
|---------------|----------------------|---------------|----------------------|
|---------------|----------------------|---------------|----------------------|
|---------------|----------------------|---------------|----------------------|
|---------------|----------------------|---------------|----------------------|
|---------------|----------------------|---------------|-1--------------------|
|-8-------------|-1--------------------|-1-------------|----------------------|


  Q    Q         S  S S S S S S S   Q..    S S S E +E  E   Q.    E Q  Q
|------3------------------3-------|--------------------3-|-8-------------|
|-------------------0---3---3-----|-1--------1---1-(1)---|---------------|
|-1--------------1--------------1-|--------1---1---------|---------6--5--|
|---------------------------------|----------------------|-------6-------|
|
| Q    S  S S S  Q        Q         Q    Q   Q      Q      Q   Q   Q  Q
|---------------------------------|-3----3---3------1----|-3---3---3--1--|
|---------------------------------|-4----4---4------3----|-4---4---4--3--|
|-------------3--3--------3-------|-3----3---3------3----|-3---3---3--3--|
|-3-------0-3----3--------3-------|----------------------|---------------|
|-5----1---------5--------5-------|----------------------|---------------|
|-6-------------------------------|----------------------|---------------|
|
| E E +Q        +H                  W                      W
|---------------------------------|----------------------|---------------|
|---------------------------------|----------------------|---------------|
|---------------------------------|----------------------|---------------|
|---0-(0)-------(0)---------------|----------------------|---------------|
|-1-------------------------------|----------------------|---------------|
|---------------------------------|----------------------|---------------|


  Q..    S S S E +E  E   Q.    E Q  E E   Q..    S S S E +E  E   Q.    E H
|----------------------|-5-------5------|----------------------|---------------|
|--------------------5-|-------5----5---|----------3---3-(3)---|---------3-----|
|-3--------3---3-(3)---|--------------3-|--------3---3-------3-|-------3-------|
|--------3---3---------|----------------|-1--------------------|-1-------------|
|
| Q    Q   Q      Q      Q   Q   Q  Q     Q    Q   Q      Q      Q   Q   Q  Q
|-3----3---3------1----|-3---3---3--1---|-4----4---4------3----|-4---4---4--4--|
|-4----4---4------3----|-4---4---4--3---|-4----4---4------4----|-4---4---4--4--|
|-3----3---3------3----|-3---3---3--3---|-5----5---5------5----|-5---5---5--5--|
|----------------------|----------------|----------------------|---------------|
|----------------------|----------------|----------------------|---------------|
|----------------------|----------------|----------------------|---------------|
|
| W                      W                W                      W
|----------------------|----------------|----------------------|---------------|
|----------------------|----------------|----------------------|---------------|
|----------------------|----------------|----------------------|---------------|
|----------------------|----------------|----------------------|---------------|
|-3--------------------|-3--------------|----------------------|---------------|
|----------------------|----------------|-1--------------------|-1-------------|


  W               +W           W          W
|---------------|------------|----------|------|
|---------------|------------|----------|------|
|-1-------------|-(1)--------|----------|------|
|---------------|------------|----------|------|
|
| H    +E  E Q     W           W          W
|-6----(6)------|------------|----------|------|
|-6----(6)------|------------|----------|------|
|-7----(7)------|------------|----------|------|
|---------------|------------|----------|------|
|---------------|------------|----------|------|
|---------------|------------|----------|------|
|
| H     H          W           W          W
|---------------|------------|----------|------|
|---------------|------------|----------|------|
|---------------|------------|----------|------|
|---------------|------------|----------|------|
|-1-------------|------------|----------|------|
|---------------|------------|----------|------|


  W          W          Q..    S S S E +E  E    Q.    E Q  Q
|----------|----------|--------------------5-|-10--------------|
|----------|----------|-3--------3---3-(3)---|-----------------|
|----------|----------|--------3---3---------|----------8--7---|
|----------|----------|----------------------|--------8--------|
|
| W          W          Q    Q   Q      Q       Q   Q   Q  Q
|----------|----------|----------------------|-----------------|
|----------|----------|-6----6---6------5----|--6---6---6--5---|
|----------|----------|-5----5---5------5----|--5---5---5--5---|
|----------|----------|-7----7---7------5----|--7---7---7--5---|
|----------|----------|----------------------|-----------------|
|----------|----------|----------------------|-----------------|
|
| W          W          W                       W
|----------|----------|----------------------|-----------------|
|----------|----------|----------------------|-----------------|
|----------|----------|----------------------|-----------------|
|----------|----------|----------------------|-----------------|
|----------|----------|----------------------|-----------------|
|----------|----------|-1--------------------|--1--------------|


  Q..    S S S E +E  E   Q.    E H       Q..    S S S E +E  E   Q.    E Q  Q
|----------------------|-7-------------|----------------------|---------------|
|--------------------7-|---------------|----------5---5-(5)---|---------5-----|
|-5--------5---5-(5)---|---------5-----|--------5---5-------5-|-------5-------|
|--------5---5---------|-------5-------|-3--------------------|-3----------3--|
|
| Q    Q   Q      Q      Q   Q   Q  Q    Q    Q   Q      Q      Q   Q   Q  Q
|----------------------|---------------|----------------------|---------------|
|-6----6---6------5----|-6---6---6--5--|-3----3---3------3----|-3---3---3--3--|
|-5----5---5------5----|-5---5---5--5--|-3----3---3------3----|-3---3---3--3--|
|-7----7---7------5----|-7---7---7--5--|-5----5---5------5----|-5---5---5--5--|
|----------------------|---------------|----------------------|---------------|
|----------------------|---------------|----------------------|---------------|
|
| W                      W               W                      W
|----------------------|---------------|----------------------|---------------|
|----------------------|---------------|----------------------|---------------|
|----------------------|---------------|----------------------|---------------|
|-0--------------------|-0-------------|----------------------|---------------|
|----------------------|---------------|----------------------|---------------|
|----------------------|---------------|-3--------------------|-3-------------|


  Q.    E Q.    E   Q  Q  S S S S S S S  S
|---------5-------|-------------0-5-9---12-|
|-------5-------5-|---------2--------------|
|-3---------------|-3--3--3----------------|
|-----------------|------------------------|
|
| Q   Q   Q   Q     Q  Q  Q       Q
|-----------------|------------------------|
|-5---5---5---5---|-5--5--5-------5--------|
|-5---5---5---5---|-5--5--5-------5--------|
|-5---5---5---5---|-5--5--5-------5--------|
|-----------------|------------------------|
|-----------------|------------------------|
|
| W                 W
|-----------------|------------------------|
|-----------------|------------------------|
|-----------------|------------------------|
|-----------------|------------------------|
|-3---------------|-3----------------------|
|-----------------|------------------------|


   Q..    S S S E +E  E    Q.    E Q  Q
|---------------------5-|-10--------------|
|-----------3---3-(3)---|-----------------|
|---------3---3---------|----------8--7---|
|-13--------------------|--------8--------|
|
|  Q    Q   Q      Q       Q   Q   Q  Q
|-----------------------|-----------------|
|--6----6---6------5----|--6---6---6--5---|
|--5----5---5------5----|--5---5---5--5---|
|--7----7---7------5----|--7---7---7--5---|
|-----------------------|-----------------|
|-----------------------|-----------------|
|
|  W                       W
|-----------------------|-----------------|
|-----------------------|-----------------|
|-----------------------|-----------------|
|-----------------------|-----------------|
|-----------------------|-----------------|
|--1--------------------|--1--------------|


  Q..    S S S E +E  E   Q.    E H       Q..    S S S E +E  E   Q.    E Q  Q
|----------------------|-7-------------|----------------------|---------------|
|--------------------7-|---------------|----------5---5-(5)---|---------5-----|
|-5--------5---5-(5)---|---------5-----|--------5---5-------5-|-------5-------|
|--------5---5---------|-------5-------|-3--------------------|-3----------3--|
|
| Q    Q   Q      Q      Q   Q   Q  Q    Q    Q   Q      Q      Q   Q   Q  Q
|----------------------|---------------|----------------------|---------------|
|-6----6---6------5----|-6---6---6--5--|-3----3---3------3----|-3---3---3--3--|
|-5----5---5------5----|-5---5---5--5--|-3----3---3------3----|-3---3---3--3--|
|-7----7---7------5----|-7---7---7--5--|-5----5---5------5----|-5---5---5--5--|
|----------------------|---------------|----------------------|---------------|
|----------------------|---------------|----------------------|---------------|
|
| W                      W               W                      W
|----------------------|---------------|----------------------|---------------|
|----------------------|---------------|----------------------|---------------|
|----------------------|---------------|----------------------|---------------|
|-0--------------------|-0-------------|----------------------|---------------|
|----------------------|---------------|----------------------|---------------|
|----------------------|---------------|-3--------------------|-3-------------|


  Q.    E Q.    E   Q  Q   Q   S S S S
|---------5-------|------------------5-|
|-------5-------5-|--------------5-----|
|-3---------------|-3--3---3---3-------|
|-----------------|--------------------|
|
| Q   Q   Q   Q     Q  E E E E E   E
|-----------------|--------6---6-------|
|-5---5---5---5---|-5--8---8-5-8---5---|
|-5---5---5---5---|-5----9-------------|
|-5---5---5---5---|-5--5---------------|
|-----------------|------7-------------|
|-----------------|--------------------|
|
| W                 W
|-----------------|--------------------|
|-----------------|--------------------|
|-----------------|--------------------|
|-----------------|--------------------|
|-3---------------|-3------------------|
|-----------------|--------------------|


  Q..               S  S  S E +E  E    Q.             E    Q     Q
|---------------------------------5-|-10-------------------------------|
|-3--------------------3----3-(3)---|----------------------------------|
|-------------------3-----3---------|----------------------8-----7-----|
|-----------------------------------|-----------------8----------------|
|
| E.      S  S  S S S  Q       Q       E.     S  S  S S S  Q     Q
|----------------------1-------0----|--1-------------------5-----3-----|
|-6-----------------1--1-------1----|--1----------------1--6-----5-----|
|-5---------------2----2-------2----|--2--------------2----5-----5-----|
|-7-------------3-------------------|---------------3------------------|
|------------3----------------------|---------0--3---------------------|
|---------5-------------------------|----------------------------------|
|
| S   S E   +Q        +E    E +E  E    S  S E   +Q        +E  E +E  E
|-----------------------------------|----------------------------------|
|-----------------------------------|----------------------------------|
|---------------------------2-(2)-2-|-------------------------2-(2)-2--|
|-------3---(3)-------(3)-----------|-------3---(3)-------(3)----------|
|-----3-----------------------------|-----3----------------------------|
|-1---------------------------------|--1-------------------------------|


  Q..               S  S  S E +E  E
|-----------------------------------|
|---------------------------------7-|
|-5--------------------5----5-(5)---|
|-------------------5-----5---------|
|
| E.      S  S  S S S  Q       Q
|-1--------------------1-------0----|
|-3-----------------1--1-------1----|
|-2---------------2-----------------|
|---------------3-------------------|
|---------0--3----------------------|
|-----------------------------------|
|
| S   S E   +Q        +E    E +E  E
|-----------------------------------|
|-----------------------------------|
|---------------------------2-(2)-2-|
|-------0---(0)-------(0)-----------|
|-----0-----------------------------|
|-----------------------------------|


  Q.             E    H            Q..               S  S  S E +E  E
|-7------------------------------|------------------------------------|
|--------------------------------|----------------------5----5-(5)----|
|---------------------5----------|-------------------5-----5-------5--|
|----------------5---------------|-3----------------------------------|
|
| E.     S  S  S S S  Q     Q      E.      S  S  S S S  Q       Q
|-1-------------------5-----3----|-6-----------------3--6-------5-----|
|-1----------------1--6-----5----|-6---------------3----6-------6-----|
|-2--------------2----5-----5----|-7-------------3------7-------7-----|
|--------------3-----------------|------------5-----------------------|
|--------0--3--------------------|---------5--------------------------|
|--------------------------------|------------------------------------|
|
| S  S E   +Q        +E  E +E  E   S   S E   +Q        +E    E +E  E
|--------------------------------|------------------------------------|
|--------------------------------|------------------------------------|
|------------------------2-(2)-2-|---------------------------3-(3)-3--|
|------0---(0)-------(0)---------|-------5---(5)-------(5)------------|
|----0---------------------------|-----5------------------------------|
|--------------------------------|-3----------------------------------|


  Q.             E    Q     Q       Q.             E    Q.       E
|--------------------------------|----------------------5----------|
|---------------------5----------|-----------------5-------------5-|
|----------------5---------------|--3------------------------------|
|-3-------------------------3----|---------------------------------|
|
| E.     S  S  S S S  Q     Q       E.     S  S  S S S  Q     Q
|-6-------------------6-----8----|----------------------0-----0----|
|-6----------------3--6-----6----|--8----------------1--1-----1----|
|-7--------------3----7-----7----|--9--------------0----0-----0----|
|--------------3-----------------|-10------------2-----------------|
|-----------5--------------------|------------3--------------------|
|--------6-----------------------|---------3-----------------------|
|
| S  S E   +Q        +E  E +E  E    S  S E   +Q        +E  E +E  E
|--------------------------------|---------------------------------|
|--------------------------------|---------------------------------|
|------------------------3-(3)-3-|---------------------------------|
|------5---(5)-------(5)---------|-------------------------5-(5)-5-|
|----5---------------------------|-------3---(3)-------(3)---------|
|-3------------------------------|-----3---------------------------|


  Q         Q         Q     S  S S S
|-------------------------------------|
|------------------------------5------|
|-3---------3---------3-----3------3--|
|-------------------------------------|
|
| E.     S  S  S S S  Q     Q
|-3--------------0-3--6-----6---------|
|-5------------1------8-----8---------|
|-5---------0---------9-----9---------|
|--------2----------------------------|
|-------------------------------------|
|-------------------------------------|
|
| S  S E   +Q        +E  E +E    E
|-------------------------------------|
|-------------------------------------|
|------5---(5)-------(5)-5-(5)---5----|
|----5--------------------------------|
|-3-----------------------------------|
|-------------------------------------|


  Q..    S S S E +E  E    Q.    E Q  Q    Q..    S S S E +E  E   Q.    E H
|--------------------5-|-10-------------|----------------------|-7-------------|
|-3--------3---3-(3)---|----------------|--------------------7-|---------------|
|--------3---3---------|----------8--7--|-5--------5---5-(5)---|---------5-----|
|----------------------|--------8-------|--------5---5---------|-------5-------|
|
| Q    Q   Q      Q       Q   Q   Q  Q    Q    Q   Q      Q      Q   Q   Q  Q
|----------------------|----------------|----------------------|---------------|
|-6----6---6------5----|--6---6---6--5--|-6----6---6------5----|-6---6---6--5--|
|-5----5---5------5----|--5---5---5--5--|-5----5---5------5----|-5---5---5--5--|
|-7----7---7------5----|--7---7---7--5--|-7----7---7------5----|-7---7---7--5--|
|----------------------|----------------|----------------------|---------------|
|----------------------|----------------|----------------------|---------------|
|
| W                       W               W                      W
|----------------------|----------------|----------------------|---------------|
|----------------------|----------------|----------------------|---------------|
|----------------------|----------------|----------------------|---------------|
|----------------------|----------------|-0--------------------|-0-------------|
|----------------------|----------------|----------------------|---------------|
|-1--------------------|--1-------------|----------------------|---------------|


  Q..    S S S E +E  E   Q.    E Q  Q    Q.             E    E.     S E   E
|----------------------|---------------|---------------------5----------------|
|----------5---5-(5)---|---------5-----|----------------5-----------5-5-------|
|--------5---5-------5-|-------5-------|-3--------------------------------3---|
|-3--------------------|-3----------3--|--------------------------------------|
|
| Q    Q   Q      Q      Q   Q   Q  Q    E.     S  S  S S S  S  S S S S S S S
|----------------------|---------------|-3-------------------0------0-3---0-3-|
|-3----3---3------3----|-3---3---3--3--|-5----------------1-------1-----1-----|
|-3----3---3------3----|-3---3---3--3--|-5--------------0-------0-------------|
|-5----5---5------5----|-5---5---5--5--|--------------2-----------------------|
|----------------------|---------------|-----------3--------------------------|
|----------------------|---------------|--------3-----------------------------|
|
| W                      W               S  S E   +Q        +H
|----------------------|---------------|--------------------------------------|
|----------------------|---------------|--------------------------------------|
|----------------------|---------------|--------------------------------------|
|----------------------|---------------|--------------------------------------|
|----------------------|---------------|------3---(3)-------(3)---------------|
|-3--------------------|-3-------------|----3---------------------------------|


  Q   Q  H      W          W          W
|-------------|----------|----------|------|
|-------------|----------|----------|------|
|-3-----------|----------|----------|------|
|-------------|----------|----------|------|
|
| E E Q  H      W          W          W
|-8-----------|----------|----------|------|
|-8-----------|----------|----------|------|
|-9-----------|----------|----------|------|
|-------------|----------|----------|------|
|-------------|----------|----------|------|
|-------------|----------|----------|------|


  W          +W
|----------|--------*|
|-3--------|-(3)----*|
|----------|--------*|
|----------|--------*|



Duration Legend
---------------
W - whole; H - half; Q - quarter; E - 8th; S - 16th; T - 32nd; X - 64th; a - acciaccatura
+ - note tied to previous; . - note dotted; .. - note double dotted
Uncapitalized letters represent notes that are staccato (1/2 duration)
Irregular groupings are notated above the duration line
Duration letters will always appear directly above the note/fret number it represents the
duration for.  Duration letters with no fret number below them represent rests.  Multi-
bar rests are notated in the form Wxn, where n is the number of bars to rest for.  Low
melody durations appear below the staff

Tablature Legend
----------------
 h   - hammer-on
 p   - pull-off
 b   - bend
 pb  - pre-bend
 r   - bend release (if no number after the r, then release immediately)
 /\  - slide into or out of (from/to "nowhere")
 s   - legato slide
 S   - shift slide
 - natural harmonic
[n]  - artificial harmonic
n(n) - tapped harmonic
 ~   - vibrato
 tr  - trill
 T   - tap
 TP  - trem. picking
 PM  - palm muting
\n/  - tremolo bar dip; n = amount to dip
 \n  - tremolo bar down
 n/  - tremolo bar up
/n\  - tremolo bar inverted dip
 =   - hold bend; also acts as connecting device for hammers/pulls
 <> - volume swell (louder/softer)
 x   - on rhythm slash represents muted slash
 o   - on rhythm slash represents single note slash

Misc Legend
-----------
 |  - bar
||  - double bar
||o - repeat start
o|| - repeat end
*|  - double bar (ending)
 :  - bar (freetime)
 $  - Segno
 &  - Coda
Tempo markers -  = BPM(8/16=s8/s16), where s8 = swing 8ths, s16 = swing 16ths


            
            
Suggest correction
Creating personal tab
Creating personal tab
You can edit any tab online and save it as your Personal.

You can edit, replace or remove any tab part or add personal notes – all changes will be seen only by you.

Personal tabs can be accessed anytime from any device, even offline.
Learn more »
Give kudos to tab author, rate the tab!
1 2 3 4 5
comments
print report bad tab
guest
You may want to rate the tab now too:
select rating
Wanna post a correction for this tab? Suggest correction