Oops, an error
Loading. Please wait.

Love Replica tab

version 2
version 2

Whole song

Interactive

by X Japan
1,054 views 1 this week
no commentswrite comment
1 2 3 4 5
3 more votes to show rating
add to favorites
×
Save as Personal and add changes to this tab that will be seen only by you. Learn more ›
×
You can save this tab as Personal to edit and correct it or add notes. All changes will be seen only by you. Learn more »
launch autoscroll
font size
0
reset
how to read this tab
guitar tuner
edit
Autoscroll
slow
fast
+/-
esc
set tempo
stop
#----------------------------------PLEASE NOTE---------------------------------#
#This file is the author's own work and represents their interpretation of the #
#song. You may only use this file for private study, scholarship, or research. #
#------------------------------------------------------------------------------#

LOVE REPLICA
As recorded by X Japan


        



Gtr I (E A D G B E) - 'Lead 1'
Gtr II (E A D G B E) - 'Lead 2'
Gtr III (E A D G B E) - 'Clean'

  Q=195
 3/4
  Gtr I
  W        W        W        W        W        W
|--------|--------|--------|--------|--------|------|
|--------|--------|--------|--------|--------|------|
|--------|--------|--------|--------|--------|------|
|--------|--------|--------|--------|--------|------|
|--------|--------|--------|--------|--------|------|
|--------|--------|--------|--------|--------|------|


  W        E E E E E E   H.           H.            H.             H.
|--------|-------------|------------|-2----------|--4-----------|--------------|
|--------|---2-4-5-4-2-|------------|------------|--------------|--5-----------|
|--------|-2-----------|-2----------|------------|--------------|--------------|
|--------|-------------|------------|------------|--------------|--------------|
|--------|-------------|------------|------------|--------------|--------------|
|--------|-------------|------------|------------|--------------|--------------|
|
| Gtr III
| W        W             Q   Q   Q    Q   Q   Q     Q    Q   Q     Q    Q   Q
|--------|-------------|-----9------|-----9------|--------------|--------------|
|--------|-------------|--------10--|--------10--|------14------|------14------|
|--------|-------------|------------|------------|----------14--|----------14--|
|--------|-------------|-4----------|------------|--------------|--------------|
|--------|-------------|------------|-8----------|--------------|--------------|
|--------|-------------|------------|------------|-12-----------|-14-----------|


   H.            +H.            +H.
|--------------|--------------|--------------|
|--7-----------|-(7)----------|-(7)----------|
|--------------|--------------|--------------|
|--------------|--------------|--------------|
|--------------|--------------|--------------|
|--------------|--------------|--------------|
|
|  Q    Q   Q     Q    Q   Q     Q    Q   Q
|--------------|--------------|--------------|
|------14------|------14------|------14------|
|----------14--|----------14--|----------14--|
|--------------|--------------|--------------|
|--------------|--------------|--------------|
|-14-----------|-13-----------|-12-----------|


   E E  E E  E E    H.             H.
|----------------|--------------|--2-----------|
|-------4-5--4-2-|--------------|--------------|
|----6-----------|--2-----------|--------------|
|--7-------------|--------------|--------------|
|----------------|--------------|--------------|
|----------------|--------------|--------------|
|
|  Q    Q    Q      Q    Q   Q     Q    Q   Q
|----------------|--------------|--------------|
|------14--------|------14------|------14------|
|-----------14---|----------14--|----------14--|
|----------------|--------------|--------------|
|----------------|--------------|--------------|
|-14-------------|-14-----------|-13-----------|


   H.             H.             H.
|--4-----------|--------------|--------------|
|--------------|--5-----------|--------------|
|--------------|--------------|--6-----------|
|--------------|--------------|--------------|
|--------------|--------------|--------------|
|--------------|--------------|--------------|
|
|  Q    Q   Q     Q    Q   Q     Q    Q   Q
|--------------|--------------|--------------|
|------14------|------14------|------14------|
|----------14--|----------14--|----------14--|
|--------------|--------------|--------------|
|--------------|--------------|--------------|
|-12-----------|-14-----------|-14-----------|


   H.             Q   Q   E E    W
|-14-----------|---------16---|-------------|
|--------------|--------------|-------------|
|--------------|--------------|-------------|
|--------------|--------------|-------------|
|--------------|--------------|-------------|
|--------------|--------------|-------------|
|
|  Q    Q   Q     Q   Q   Q      Q   Q   Q
|--------------|--------------|-------------|
|------14------|-----14-------|-----14------|
|----------14--|---------14---|---------14--|
|--------------|--------------|-------------|
|--------------|--------------|-------------|
|-13-----------|-12-----------|-14----------|


   H       Q     H       Q     Q.      E  E  E
|-14------14--|-------------|------------------|
|-------------|-14------14--|-14------15-14-12-|
|-------------|-------------|------------------|
|-------------|-------------|------------------|
|-------------|-------------|------------------|
|-------------|-------------|------------------|
|
| Gtr II
|  H       Q     H       Q     Q.      E  E  E
|--9-------9--|-------------|------------------|
|-------------|-10------10--|-10------12-10--9-|
|-------------|-------------|------------------|
|-------------|-------------|------------------|
|-------------|-------------|------------------|
|-------------|-------------|------------------|
|
| Gtr III
|  Q   Q   Q     Q   Q   Q     Q    Q     Q
|-------------|-------------|------------------|
|-------------|-------------|------------------|
|-----14--14--|-----13--13--|------13----13----|
|-----16--16--|-----15--15--|------14----14----|
|-----16--16--|-----16--16--|------14----14----|
|-14----------|-13----------|-12---------------|


   H       Q     H       Q     Q   E  S S  Q
|-------------|--9-------9--|-10---9-10-9-------|
|-10------10--|-------------|-------------10----|
|-------------|-------------|-------------------|
|-------------|-------------|-------------------|
|-------------|-------------|-------------------|
|-------------|-------------|-------------------|
|
|  H       Q     H       Q     Q   E  S S  Q
|-------------|--5-------5--|--7---5--7-5-------|
|--7-------7--|-------------|--------------7----|
|-------------|-------------|-------------------|
|-------------|-------------|-------------------|
|-------------|-------------|-------------------|
|-------------|-------------|-------------------|
|
|  Q   Q   Q     Q   Q   Q     Q   Q       Q
|-------------|-------------|-------------------|
|-------------|-------------|-------------------|
|-----11--11--|-----11--11--|------9-------9----|
|-----13--13--|-----12--12--|-----11------11----|
|-----14--14--|-----12--12--|-----12------12----|
|-11----------|-10----------|--9----------------|


   E  E  E  E  E  E    H       Q     H       Q
|-------------11-12-|-13------13--|-14------14--|
|-12-11-12-13-------|-------------|-------------|
|-------------------|-------------|-------------|
|-------------------|-------------|-------------|
|-------------------|-------------|-------------|
|-------------------|-------------|-------------|
|
|  E  E  E  E  E  E    H       Q     H       Q
|-------------------|-------------|-------------|
|--9--8--9-11-12-13-|-14------14--|-14------14--|
|-------------------|-------------|-------------|
|-------------------|-------------|-------------|
|-------------------|-------------|-------------|
|-------------------|-------------|-------------|
|
|  Q     Q     Q       Q   Q   Q     Q   Q   Q
|-------------------|-------------|-------------|
|-------------------|-------------|-----10--10--|
|--------8-----8----|-----10--10--|-----11--11--|
|-------10----10----|-----11--11--|-----11--11--|
|-------11----11----|-----11--11--|--9----------|
|--8----------------|--9----------|-------------|


   H       Q     Q.     E  E  E    H       Q
|-------------|-----------------|-------------|
|-14------14--|-14-----15-14-12-|-10------10--|
|-------------|-----------------|-------------|
|-------------|-----------------|-------------|
|-------------|-----------------|-------------|
|-------------|-----------------|-------------|
|
|  H       Q     Q.     E  E  E    H       Q
|-------------|-----------------|-------------|
|-------------|--------12-10--9-|--7-------7--|
|-14------14--|-14--------------|-------------|
|-------------|-----------------|-------------|
|-------------|-----------------|-------------|
|-------------|-----------------|-------------|
|
|  Q   Q   Q     Q   Q     Q       Q   Q   Q
|-------------|-----------------|-------------|
|------9---9--|------9-----9----|-------------|
|-----10--10--|------9-----9----|-----11--11--|
|-----11--11--|------9-----9----|-----13--13--|
|--8----------|--7--------------|-----14--14--|
|-------------|-----------------|-11----------|


   H       Q     Q   E  S S  Q     E  E  E  E  E  E
|--9-------9--|-10---9-10-9-----|-------------11-12-|
|-------------|-------------10--|-12-11-12-13-------|
|-------------|-----------------|-------------------|
|-------------|-----------------|-------------------|
|-------------|-----------------|-------------------|
|-------------|-----------------|-------------------|
|
|  H       Q     Q   E  S S  Q     E  E  E  E  E  E
|--5-------5--|--7---5--7-5-----|-------------------|
|-------------|--------------7--|--9--8--9-11-12-13-|
|-------------|-----------------|-------------------|
|-------------|-----------------|-------------------|
|-------------|-----------------|-------------------|
|-------------|-----------------|-------------------|
|
|  Q   Q   Q     Q   Q       Q     Q     Q     Q
|-------------|-----------------|-------------------|
|-------------|-----------------|-------------------|
|-----11--11--|------9-------9--|--------8-----8----|
|-----12--12--|-----11------11--|-------10----10----|
|-----12--12--|-----12------12--|-------11----11----|
|-10----------|--9--------------|--8----------------|


   H       Q     E  E  E  E  E E    Q   E  E  Q
|-13------13--|-14-12-10--9--7-5-|--7--------------|
|-------------|------------------|------9-10-12----|
|-------------|------------------|-----------------|
|-------------|------------------|-----------------|
|-------------|------------------|-----------------|
|-------------|------------------|-----------------|
|
|  H       Q     E  E  E  E  E E    Q   E  E  Q
|-------------|------------------|-----------------|
|-14------14--|-15-14-12-10--9-7-|--9------7--9----|
|-------------|------------------|------9----------|
|-------------|------------------|-----------------|
|-------------|------------------|-----------------|
|-------------|------------------|-----------------|
|
|  Q   Q   Q     Q     Q     Q      Q   Q     Q
|-------------|------------------|-----------------|
|-------------|------------------|-----------------|
|-----10--10--|-------11----11---|-----13----13----|
|-----11--11--|-------12----12---|-----14----14----|
|-----11--11--|-------12----12---|-----14----14----|
|--9----------|-10---------------|-12--------------|


   E  E  E E  E E    Q   E E  Q     E E E E E E
|-12-10--9-7--5-4-|--5-----------|-10-9-7-5-4-2-|
|-----------------|------7-9-10--|--------------|
|-----------------|--------------|--------------|
|-----------------|--------------|--------------|
|-----------------|--------------|--------------|
|-----------------|--------------|--------------|
|
|  E  E  E E  E E    Q   E E  Q     E E E E E E
|--9--7--5-4--2---|--------------|--7-5-4-2-1---|
|---------------5-|--7-----5--7--|------------3-|
|-----------------|------7-------|--------------|
|-----------------|--------------|--------------|
|-----------------|--------------|--------------|
|-----------------|--------------|--------------|
|
|  Q     Q    Q      Q   Q    Q     Q   Q   Q
|-----------------|--------------|--------------|
|-----------------|--------------|--------------|
|-----------------|-----11---11--|------7---7---|
|-------14---14---|-----12---12--|------9---9---|
|--0----16---16---|-----12---12--|------9---9---|
|-------17---17---|-10-----------|--7-----------|


  Q   Q   Q    Q  E E E E   E  E  E  E  E  E
|-4-------7--|-5--5-4-5-7-|-9----------------|
|-----6------|------------|---11-12-14-15-17-|
|------------|------------|------------------|
|------------|------------|------------------|
|------------|------------|------------------|
|------------|------------|------------------|
|
| Q   Q   Q    Q  E E E E   E  E  E  E  E  E
|-1-------4--|-2--2-1-2-4-|-6--------------9-|
|-----2------|------------|----7--9-11-------|
|------------|------------|------------11----|
|------------|------------|------------------|
|------------|------------|------------------|
|------------|------------|------------------|
|
| Q   Q   Q    Q  Q   Q     Q     Q     Q
|------------|------------|------------------|
|------------|----2---2---|-------2-----2----|
|----10--10--|----2---2---|-------3-----3----|
|----11--11--|----4---4---|-------4-----4----|
|----11--11--|------------|-1----------------|
|-9----------|-2----------|------------------|


   E  E  E  E  E  E    Q   E  E  Q     E  E E E E E
|-------------------|---------------|-12-10-9-7-5-4-|
|-19-17-15-14-12-10-|-12--------12--|---------------|
|-------------------|-----13-14-----|---------------|
|-------------------|---------------|---------------|
|-------------------|---------------|---------------|
|-------------------|---------------|---------------|
|
|  E  E  E  E  E  E    Q   E  E  Q     E  E E E E E
|-10--9--7--5--4--2-|--4------------|--9--7-5-4-2---|
|-------------------|------5--7--9--|-------------5-|
|-------------------|---------------|---------------|
|-------------------|---------------|---------------|
|-------------------|---------------|---------------|
|-------------------|---------------|---------------|
|
|  Q     Q     Q       Q   Q     Q     Q    Q   Q
|--------2-----2----|------4-----4--|---------------|
|--------3-----3----|------5-----5--|-------5---5---|
|--------2-----2----|------4-----4--|-------6---6---|
|--0----------------|--2------------|-------7---7---|
|-------------------|---------------|---------------|
|-------------------|---------------|--5------------|


  Q  E E  Q     E E E E E E   E  E  E  E  E  E
|-5----------|-10-9-7-5-4-2-|-4-14-13----------|
|----7-9-10--|--------------|---------15-14-12-|
|------------|--------------|------------------|
|------------|--------------|------------------|
|------------|--------------|------------------|
|------------|--------------|------------------|
|
| Q  E E  Q     E E E E E E   E  E  E  E  E  E
|------------|--7-5-4-2-1---|-1-10--9--7--5--4-|
|-7----5--7--|------------3-|------------------|
|----7-------|--------------|------------------|
|------------|--------------|------------------|
|------------|--------------|------------------|
|------------|--------------|------------------|
|
| Q  Q    Q     Q   Q   Q     Q     Q     Q
|------------|--------------|------------------|
|----7----7--|--------------|------------------|
|----7----7--|------7---7---|------10----10----|
|----7----7--|------9---9---|------11----11----|
|-5----------|------9---9---|------11----11----|
|------------|--7-----------|-9----------------|


   Q   Q   Q     Q.    E E E   Q  Q  Q    Q  Q  Q    Q.    E Q    Q.    E E E
|-------------|--------------|----------|----------|-5----------|-------------|
|-10----------|--------------|----------|-------7--|-------7----|-7-----5-3-2-|
|-----11------|-11-----9-7-6-|-4--------|----6-----|---------6--|-------------|
|---------11--|--------------|----6-----|-7--------|------------|-------------|
|-------------|--------------|-------8--|----------|------------|-------------|
|-------------|--------------|----------|----------|------------|-------------|
|
|  Q   Q   Q     Q.    E E E   Q  Q  Q    Q  Q  Q    Q.    E Q    Q.    E E E
|--2----------|--------------|----------|----------|-2----------|-------------|
|------2------|--3-----2-----|----------|-------2--|-------2----|-3-----2-----|
|----------2--|----------4-2-|-1--------|----2-----|---------2--|---------4-2-|
|-------------|--------------|----3-----|-4--------|------------|-------------|
|-------------|--------------|-------4--|----------|------------|-------------|
|-------------|--------------|----------|----------|------------|-------------|
|
|  Q   Q   Q     Q   Q   Q     Q  Q  Q    Q  Q  Q    Q   Q   Q    Q   Q   Q
|-------------|--------------|----------|----------|------------|-------------|
|------2---2--|------3---3---|----6--6--|----2--2--|-----2---2--|-----3---3---|
|------2---2--|------4---4---|----6--6--|----2--2--|-----2---2--|-----4---4---|
|------4---4--|------4---4---|----6--6--|----4--4--|-----4---4--|-----4---4---|
|-------------|--2-----------|-4--------|----------|------------|-2-----------|
|--2----------|--------------|----------|-2--------|-2----------|-------------|


  E E E E E E   Q  Q  Q    Q.    E Q    Q.    E E E   Q  Q  Q    Q  Q  Q
|-4-2-1-------|----------|-5----------|-------------|----------|----------|
|-------3-2---|-------6--|-------7----|-7-----5-3-2-|----------|-------7--|
|-----------4-|----6-----|---------6--|-------------|-4--------|----6-----|
|-------------|-6--------|------------|-------------|----6-----|-7--------|
|-------------|----------|------------|-------------|-------8--|----------|
|-------------|----------|------------|-------------|----------|----------|
|
| E E E E E E   Q  Q  Q    Q.    E Q    Q.    E E E   Q  Q  Q    Q  Q  Q
|-1-----------|----------|-2----------|-------------|----------|----------|
|---3-2-------|-------2--|-------2----|-3-----2-----|----------|-------2--|
|-------4-2-1-|----1-----|---------2--|---------4-2-|-1--------|----2-----|
|-------------|-3--------|------------|-------------|----3-----|-4--------|
|-------------|----------|------------|-------------|-------4--|----------|
|-------------|----------|------------|-------------|----------|----------|
|
| Q   Q   Q     Q  Q  Q    Q   Q   Q    Q   Q   Q     Q  Q  Q    Q  Q  Q
|-------------|----------|------------|-------------|----------|----------|
|-----6---6---|----6--6--|-----2---2--|-----3---3---|----6--6--|----2--2--|
|-----6---6---|----6--6--|-----2---2--|-----4---4---|----6--6--|----2--2--|
|-----6---6---|----6--6--|-----4---4--|-----4---4---|----6--6--|----4--4--|
|-4-----------|-4--------|------------|-2-----------|-4--------|----------|
|-------------|----------|-2----------|-------------|----------|-2--------|


  Q.    E Q    Q   E E E E   E E E E E E
|-5----------|-------------|-------------|
|-------7----|-7---7-5-3-2-|-2-3-2-3-2-3-|
|---------6--|-------------|-------------|
|------------|-------------|-------------|
|------------|-------------|-------------|
|------------|-------------|-------------|
|
| Q.    E Q    Q.    E E E   E E E E E E
|-2----------|-------------|-------------|
|-------2----|-3-----2-----|-------------|
|---------2--|---------4-2-|-1-2-1-2-1-2-|
|------------|-------------|-------------|
|------------|-------------|-------------|
|------------|-------------|-------------|
|
| Q   Q   Q    Q   Q   Q     Q   Q   Q
|------------|-------------|-------------|
|-----2---2--|-----3---3---|-----6---6---|
|-----2---2--|-----4---4---|-----6---6---|
|-----4---4--|-----4---4---|-----6---6---|
|------------|-2-----------|-4-----------|
|-2----------|-------------|-------------|


  E E E E E E    E E E E E E   E E E E E E
|-------------|-10-9-7-5-4-2-|-1-----------|
|-2-3-2-3-2-3-|--------------|---3-2-------|
|-------------|--------------|-------4-2-1-|
|-------------|--------------|-------------|
|-------------|--------------|-------------|
|-------------|--------------|-------------|
|
| E E E E E E    E E E E E E   E E E E E E
|-------------|--7-5-4-2-1---|-------------|
|-------------|------------3-|-2-----------|
|-1-2-1-2-1-2-|--------------|---4-2-1-----|
|-------------|--------------|---------4-3-|
|-------------|--------------|-------------|
|-------------|--------------|-------------|
|
| Q   Q   Q      Q   Q   Q     W
|-------------|--------------|-------------|
|-----6---6---|--6-----------|-------------|
|-----6---6---|--6-----------|-------------|
|-----6---6---|--6-----------|-------------|
|-4-----------|--------------|-------------|
|-------------|--9-----------|-------------|


   H      Q     H      Q     Q.     E  E  E
|-14-----14--|------------|-----------------|
|------------|-14-----14--|-14-----15-14-12-|
|------------|------------|-----------------|
|------------|------------|-----------------|
|------------|------------|-----------------|
|------------|------------|-----------------|
|
|  H      Q     H      Q     Q.     E  E  E
|--9------9--|------------|-----------------|
|------------|-10-----10--|-10-----12-10--9-|
|------------|------------|-----------------|
|------------|------------|-----------------|
|------------|------------|-----------------|
|------------|------------|-----------------|
|
|  Q  Q   Q     Q  Q   Q     Q   Q     Q
|-----5---5--|-----4---4--|------4-----4----|
|-----7---7--|-----6---6--|------5-----5----|
|-----6---6--|-----6---6--|------4-----4----|
|--4---------|--3---------|--2--------------|
|------------|------------|-----------------|
|------------|------------|-----------------|


   H      Q    H     Q     Q   E  S S  Q
|------------|-9-----9--|-10---9-10-9-------|
|-10-----10--|----------|-------------10----|
|------------|----------|-------------------|
|------------|----------|-------------------|
|------------|----------|-------------------|
|------------|----------|-------------------|
|
|  H      Q    H     Q     Q   E  S S  Q
|------------|-5-----5--|--7---5--7-5-------|
|--7------7--|----------|--------------7----|
|------------|----------|-------------------|
|------------|----------|-------------------|
|------------|----------|-------------------|
|------------|----------|-------------------|
|
|  Q  Q   Q    Q  Q  Q     Q   Q       Q
|------------|----------|-------------------|
|-----7---7--|----7--7--|-------------------|
|-----8---8--|----7--7--|------9-------9----|
|-----9---9--|----7--7--|-----11------11----|
|--6---------|-5--------|-----12------12----|
|------------|----------|--9----------------|


   E  E  E  E  E  E    Q   Q   Q     H      Q
|-------------11-12-|-13--16--19--|------------|
|-12-11-12-13-------|-------------|-19-----19--|
|-------------------|-------------|------------|
|-------------------|-------------|------------|
|-------------------|-------------|------------|
|-------------------|-------------|------------|
|
|  E  E  E  E  E  E    Q   Q   Q     H      Q
|-------------------|-----13--16--|------------|
|--9--8--9-10-12-13-|-14----------|-14-----14--|
|-------------------|-------------|------------|
|-------------------|-------------|------------|
|-------------------|-------------|------------|
|-------------------|-------------|------------|
|
|  Q     Q     Q       Q   Q   Q     Q  Q   Q
|-------------------|-------------|-----5---5--|
|--------3-----3----|------6---6--|-----7---7--|
|--------5-----5----|------6---6--|-----6---6--|
|--------6-----6----|------6---6--|--4---------|
|-------------------|--4----------|------------|
|--8----------------|-------------|------------|


   H      Q     Q.     E  E  E    H      Q
|------------|-----------------|------------|
|------------|-----------------|------------|
|-18-----18--|-18-----19-18-16-|-14-----14--|
|------------|-----------------|------------|
|------------|-----------------|------------|
|------------|-----------------|------------|
|
|  H      Q     Q.     E  E  E    H      Q
|------------|-----------------|------------|
|------------|--------12-10--9-|--7------7--|
|-14-----14--|-14--------------|------------|
|------------|-----------------|------------|
|------------|-----------------|------------|
|------------|-----------------|------------|
|
|  Q  Q   Q     Q   Q     Q       Q  Q   Q
|-----4---4--|------4-----4----|------------|
|-----6---6--|------5-----5----|-----7---7--|
|-----6---6--|------4-----4----|-----8---8--|
|--3---------|--2--------------|-----9---9--|
|------------|-----------------|--6---------|
|------------|-----------------|------------|


   Q   Q   Q     Q   Q   Q     Q   E  E  E  E
|-------------|-------------|-----------------|
|---------15--|-17----------|-17--17-15-14-12-|
|-----14------|-----16------|-----------------|
|-16----------|---------18--|-----------------|
|-------------|-------------|-----------------|
|-------------|-------------|-----------------|
|
|  Q   Q   Q     Q   Q   Q     Q   E  E  E  E
|----------5--|--7----------|--9---9--7--6--4-|
|------7------|------9------|-----------------|
|--7----------|----------9--|-----------------|
|-------------|-------------|-----------------|
|-------------|-------------|-----------------|
|-------------|-------------|-----------------|
|
|  Q   Q   Q     Q   Q   Q     Q   Q     Q
|-------------|-------------|-----------------|
|------7---7--|------9---9--|-----10----10----|
|------7---7--|------9---9--|-----11----11----|
|------7---7--|------9---9--|-----11----11----|
|--5----------|--7----------|--9--------------|
|-------------|-------------|-----------------|


   H.             H          Q      H          Q
|--------------|-----------------|------------------|
|-11-----------|-----------------|--9----------9----|
|--------------|-11---------11---|------------------|
|--------------|-----------------|------------------|
|--------------|-----------------|------------------|
|--------------|-----------------|------------------|
|
|  H.             E  E  E E  E E    E E  E  E  E  E
|--2-----------|-14-12-10-9--7-5-|--7---------------|
|--------------|-----------------|----9-10-12-14-16-|
|--------------|-----------------|------------------|
|--------------|-----------------|------------------|
|--------------|-----------------|------------------|
|--------------|-----------------|------------------|
|
|  Q    Q   Q     Q     Q    Q      Q    Q     Q
|--------------|-----------------|------------------|
|------11--11--|-----------------|------------------|
|------11--11--|-------11---11---|------13----13----|
|------11--11--|-------12---12---|------14----14----|
|--9-----------|-------12---12---|------14----14----|
|--------------|-10--------------|-12---------------|


   H           Q      H           Q       H          Q
|------------------|-------------------|-----------------|
|------------------|--7-----------7----|-----------------|
|--9-----------9---|-------------------|--7----------7---|
|------------------|-------------------|-----------------|
|------------------|-------------------|-----------------|
|------------------|-------------------|-----------------|
|
|  E  E  E  E  E E    E  E  E  E  E  E    E  E  E  E E E
|------------------|-------------------|-----------------|
|-17-15-14-12-10-9-|-10-----9-10-12-14-|-15-14-12-10-9-7-|
|------------------|----11-------------|-----------------|
|------------------|-------------------|-----------------|
|------------------|-------------------|-----------------|
|------------------|-------------------|-----------------|
|
|  Q     Q     Q      Q     Q     Q       Q     Q    Q
|------------------|-------------------|-----------------|
|------------------|-------------------|-----------------|
|------------------|-------11----11----|--------7----7---|
|-------14----14---|-------12----12----|--------9----9---|
|--0----16----16---|-------12----12----|--------9----9---|
|-------17----17---|-10----------------|--7--------------|


  H         Q       H        Q       H           Q
|----------------|--5--------5----|--9-----------9----|
|-6---------6----|----------------|-------------------|
|----------------|----------------|-------------------|
|----------------|----------------|-------------------|
|----------------|----------------|-------------------|
|----------------|----------------|-------------------|
|
| E E  E E  E  E    Q.    E  E  E    E  E  E  E  E  E
|----------------|----------------|-------------------|
|-9----7-9-10-12-|-10-----9-10-12-|-14-------14-15-17-|
|---9------------|----------------|----15-16----------|
|----------------|----------------|-------------------|
|----------------|----------------|-------------------|
|----------------|----------------|-------------------|
|
| Q    Q    Q       Q   Q    Q       Q     Q     Q
|----------------|----------------|-------------------|
|----------------|------2----2----|--------2-----2----|
|-----10---10----|------2----2----|--------3-----3----|
|-----11---11----|------4----4----|--------4-----4----|
|-----11---11----|----------------|--1----------------|
|-9--------------|--2-------------|-------------------|


   H           Q       H           Q       H           Q
|-14----------14----|-16----------16----|------------------|
|-------------------|-------------------|-17----------17---|
|-------------------|-------------------|------------------|
|-------------------|-------------------|------------------|
|-------------------|-------------------|------------------|
|-------------------|-------------------|------------------|
|
|  E  E  E  E  E  E    E  E  E  E  E  E    E  E  E  E  E E
|-------------------|-------------------|------------------|
|-19-17-15-14-12-10-|-12-------12-14-16-|-17-15-14-12-10-9-|
|-------------------|----13-14----------|------------------|
|-------------------|-------------------|------------------|
|-------------------|-------------------|------------------|
|-------------------|-------------------|------------------|
|
|  Q     Q     Q       Q     Q     Q       Q     Q     Q
|--------2-----2----|--------4-----4----|------------------|
|--------3-----3----|--------5-----5----|--------5-----5---|
|--------2-----2----|--------4-----4----|--------6-----6---|
|--0----------------|--2----------------|--------7-----7---|
|-------------------|-------------------|------------------|
|-------------------|-------------------|--5---------------|


   H          Q       H           Q      H         Q
|------------------|------------------|-----------------|
|-19---------19----|------------------|-18--------18----|
|------------------|-19----------19---|-----------------|
|------------------|------------------|-----------------|
|------------------|------------------|-----------------|
|------------------|------------------|-----------------|
|
|  E  E E  E  E  E    E  E  E  E  E E    E E  E E  E  E
|------------------|------------------|-----------------|
|-10----9-10-12-14-|-15-14-12-10--9-7-|--9----7-9-10-12-|
|----11------------|------------------|----9------------|
|------------------|------------------|-----------------|
|------------------|------------------|-----------------|
|------------------|------------------|-----------------|
|
|  Q    Q     Q       Q     Q     Q      Q    Q    Q
|------------------|------------------|-----------------|
|-------7-----7----|------------------|-----------------|
|-------7-----7----|--------7-----7---|------10---10----|
|-------7-----7----|--------9-----9---|------11---11----|
|--5---------------|--------9-----9---|------11---11----|
|------------------|--7---------------|--9--------------|


   Q   Q   Q     Q.     E  E  E    Q   Q   Q
|-------------|-----------------|-------------|
|-------------|-----------------|-------------|
|-------------|-----------------|-------------|
|-19----------|-----------------|-------------|
|-----21------|-21-----19-17-16-|-14----------|
|---------21--|-----------------|-----16--13--|
|
|  Q   Q   Q     Q.     E  E  E    Q   Q   Q
|-------------|-----------------|-------------|
|-------------|-----------------|-------------|
|-11----------|-----------------|-------------|
|-----11------|-12-----11--9--7-|--6----------|
|---------12--|-----------------|------8------|
|-------------|-----------------|----------9--|
|
|  Q   Q   Q     Q   Q     Q       Q   Q   Q
|-------------|-----------------|-------------|
|------2---2--|------3-----3----|------6---6--|
|------2---2--|------4-----4----|------6---6--|
|------4---4--|------4-----4----|------6---6--|
|-------------|--2--------------|--4----------|
|--2----------|-----------------|-------------|


   Q   Q   Q     Q.     E  Q     Q.    E E E
|-------------|---------------|--------------|
|-------------|-10------------|--------------|
|---------11--|--------11-----|-11-----9-7-6-|
|-----11------|-----------11--|--------------|
|-12----------|---------------|--------------|
|-------------|---------------|--------------|
|
|  Q   Q   Q     Q.     E  Q     Q.    E E E
|-------------|---------------|--------------|
|-------------|--7------------|--------------|
|----------6--|---------6-----|--7-----6-4-2-|
|------7------|------------7--|--------------|
|--9----------|---------------|--------------|
|-------------|---------------|--------------|
|
|  Q   Q   Q     Q   Q     Q     Q   Q   Q
|-------------|---------------|--------------|
|------2---2--|------2-----2--|------3---3---|
|------2---2--|------2-----2--|------4---4---|
|------4---4--|------4-----4--|------4---4---|
|-------------|---------------|--2-----------|
|--2----------|--2------------|--------------|


  E E E E E E   Q  Q  Q    Q.    E Q    Q.    E E E   Q  Q  Q    Q  Q  Q
|-4-2-1-------|----------|-5----------|-------------|----------|----------|
|-------3-2---|-------6--|-------7----|-7-----5-3-2-|----------|-------7--|
|-----------4-|----6-----|---------6--|-------------|-4--------|----6-----|
|-------------|-6--------|------------|-------------|----6-----|-7--------|
|-------------|----------|------------|-------------|-------8--|----------|
|-------------|----------|------------|-------------|----------|----------|
|
| E E E E E E   Q  Q  Q    Q.    E Q    Q.    E E E   Q  Q  Q    Q  Q  Q
|-1-----------|----------|-2----------|-------------|----------|----------|
|---3-2-------|-------2--|-------2----|-3-----2-----|----------|-------2--|
|-------4-2-1-|----1-----|---------2--|---------4-2-|-1--------|----2-----|
|-------------|-3--------|------------|-------------|----3-----|-4--------|
|-------------|----------|------------|-------------|-------4--|----------|
|-------------|----------|------------|-------------|----------|----------|
|
| Q   Q   Q     Q  Q  Q    Q   Q   Q    Q   Q   Q     Q  Q  Q    Q  Q  Q
|-------------|----------|------------|-------------|----------|----------|
|-----6---6---|----6--6--|-----2---2--|-----3---3---|----6--6--|----2--2--|
|-----6---6---|----6--6--|-----2---2--|-----4---4---|----6--6--|----2--2--|
|-----6---6---|----6--6--|-----4---4--|-----4---4---|----6--6--|----4--4--|
|-4-----------|-4--------|------------|-2-----------|-4--------|----------|
|-------------|----------|-2----------|-------------|----------|-2--------|


  Q.    E Q    Q  E E E E   Q  E E E  E
|-5----------|------------|-------------|
|-------7----|-7--7-5-3-2-|-------------|
|---------6--|------------|-4-----------|
|------------|------------|----6-7-9----|
|------------|------------|----------11-|
|------------|------------|-------------|
|
| Q.    E Q    Q  E E E E   Q  E E E  E
|-2----------|------------|-------------|
|-------2----|-3--3-2-----|-------------|
|---------2--|--------4-2-|-1-----------|
|------------|------------|----3-4-6----|
|------------|------------|-----------8-|
|------------|------------|-------------|
|
| Q   Q   Q    Q  Q   Q     Q  Q   Q
|------------|------------|-------------|
|-----2---2--|----3---3---|----6---6----|
|-----2---2--|----4---4---|----6---6----|
|-----4---4--|----4---4---|----6---6----|
|------------|-2----------|-4-----------|
|-2----------|------------|-------------|


   H.           H       Q     H       Q
|------------|-------------|-------------|
|------------|-14------14--|-13------13--|
|------------|-------------|-------------|
|------------|-------------|-------------|
|-12---------|-------------|-------------|
|------------|-------------|-------------|
|
|  H.           W             W
|------------|-------------|-------------|
|------------|-------------|-------------|
|------------|-------------|-------------|
|------------|-------------|-------------|
|--9---------|-------------|-------------|
|------------|-------------|-------------|
|
|  Q   Q  Q     Q   Q   Q     Q   Q   Q
|------------|-------------|-------------|
|------2--2--|-------------|----------9--|
|------2--2--|-15------15--|-13--11------|
|------4--4--|-----16------|-------------|
|------------|-------------|-------------|
|--2---------|-14----------|-------------|


   H      Q    H     Q     H       Q    H      Q     H      Q    H     Q
|-11-----11--|-9-----9--|--9-------9--|-8------8--|-11-----11--|-9-----9--|
|------------|----------|-------------|-----------|------------|----------|
|------------|----------|-------------|-----------|------------|----------|
|------------|----------|-------------|-----------|------------|----------|
|------------|----------|-------------|-----------|------------|----------|
|------------|----------|-------------|-----------|------------|----------|
|
| Gtr III
|  Q  Q   Q    Q  Q  Q     Q   Q   Q    Q   Q  Q     Q  Q   Q    Q  Q  Q
|--7------7--|-6--------|-------------|-----------|--7------7--|-6-----4--|
|-----7------|----7--9--|-11------11--|-9------9--|-----6------|----6-----|
|------------|----------|-----10------|----10-----|------------|----------|
|------------|----------|-------------|-----------|------------|----------|
|------------|----------|-------------|-----------|------------|----------|
|------------|----------|-13----------|-----------|------------|----------|


   H      Q    H     Q     H      Q     Q   Q  Q     H      Q     H      Q
|--9------9--|-7-----7--|-11-----11--|-12--11--9--|------------|------------|
|------------|----------|------------|------------|-11-----11--|-12-----12--|
|------------|----------|------------|------------|------------|------------|
|------------|----------|------------|------------|------------|------------|
|------------|----------|------------|------------|------------|------------|
|------------|----------|------------|------------|------------|------------|
|
|  Q  Q   Q    Q  Q  Q     Q  Q   Q     Q   Q  Q     Q  Q   Q     Q  Q   Q
|------------|----------|--7------7--|--9---7-----|------------|------------|
|-11-----11--|-9-----9--|-----5------|---------9--|--8------8--|--9------9--|
|-----9------|----9-----|------------|------------|-----8------|-----8------|
|------------|----------|------------|------------|------------|------------|
|------------|----------|------------|------------|------------|------------|
|-12---------|----------|------------|------------|-11---------|------------|


   H       Q     H.             W          W           W          W
|-------------|--------------|-----------|----------|-----------|----------|
|-14------14--|--------------|-----------|----------|-----------|----------|
|-------------|-15-----------|-----------|----------|-----------|----------|
|-------------|--------------|-----------|----------|-----------|----------|
|-------------|--------------|-----------|----------|-----------|----------|
|-------------|--------------|-----------|----------|-----------|----------|
|
|  Q   Q   Q     Q    Q   Q     Q  Q  Q    Q  Q  Q     Q  Q  Q    Q  Q  Q
|-------------|--------------|-----------|----------|-----------|----------|
|-11------11--|--------------|-----------|-9--------|-----------|-9--------|
|-------------|-12-------12--|--------8--|----8-----|--------8--|----8-----|
|-----13------|------13------|-----9-----|-------9--|-----9-----|-------9--|
|-------------|--------------|-11--------|----------|-10--------|----------|
|-------------|--------------|-----------|----------|-----------|----------|


  W          W          W
|----------|----------|------------|
|----------|----------|------------|
|----------|----------|------------|
|----------|----------|------------|
|----------|----------|------------|
|----------|----------|------------|
|
| Q  Q  Q    Q  Q  Q    Q  Q  Q
|----------|----------|------------|
|----------|-9--------|------------|
|-------8--|----8-----|-------8----|
|----9-----|-------9--|----9-------|
|-9--------|----------|-8----------|
|----------|----------|------------|


   E  E  E  E  E  E    H.           +H.
|-------------------|------------|--------------|
|-------------------|------------|--------------|
|-------------------|------------|--------------|
|-------------------|------------|--------------|
|-------------------|------------|--------------|
|-11-12-13-14-15-16-|-17---------|-(17)---------|
|
|  Q     Q     Q       Q   Q  Q      Q   Q  Q
|-------------------|------------|--------------|
|--9----------------|------------|--------------|
|--------8----------|---------6--|----------6---|
|--------------9----|------7-----|-------7------|
|-------------------|--9---------|---8----------|
|-------------------|------------|--------------|


   +H.           +H.           +H.
|-------------|-------------|-------------|
|-------------|-------------|-------------|
|-------------|-------------|-------------|
|-------------|-------------|-------------|
|-------------|-------------|-------------|
|-(17)--------|-(17)--------|-(17)--------|
|
|   Q   Q  Q      Q   Q  Q      Q   Q  Q
|-------------|-------------|-------------|
|-------------|-------------|----------2--|
|----------6--|----------6--|-------2-----|
|-------7-----|-------7-----|---4---------|
|---7---------|---6---------|-------------|
|-------------|-------------|-------------|


   +H.           +H.           E  E  E  E  E  E
|-------------|-------------|-------------------|
|-------------|-------------|-------------------|
|-------------|-------------|-------------------|
|-------------|-------------|-------------------|
|-------------|-------------|-------------------|
|-(17)--------|-(17)--------|-13-14-14-15-14-16-|
|
|   Q   Q  Q      Q   Q  Q     Q     Q     Q
|-------------|-------------|-------------------|
|----------2--|----------2--|--------------2----|
|-------2-----|-------2-----|--------2----------|
|---3---------|---2---------|--1----------------|
|-------------|-------------|-------------------|
|-------------|-------------|-------------------|


   H.           +H.           +H.
|------------|-------------|-------------|
|------------|-------------|-------------|
|------------|-------------|-------------|
|------------|-------------|-------------|
|------------|-------------|-------------|
|-17---------|-(17)--------|-(17)--------|
|
|  Q   Q  Q      Q   Q  Q      Q   Q  Q
|------------|-------------|-------------|
|---------2--|----------2--|----------2--|
|------2-----|-------2-----|-------2-----|
|--4---------|---3---------|---2---------|
|------------|-------------|-------------|
|------------|-------------|-------------|


   +H.           +H.           +H.
|-------------|-------------|-------------|
|-------------|-------------|-------------|
|-------------|-------------|-------------|
|-------------|-------------|-------------|
|-------------|-------------|-------------|
|-(17)--------|-(17)--------|-(17)--------|
|
|   Q   Q  Q      Q   Q  Q      Q   Q  Q
|-------------|-------------|-------------|
|----------2--|----------2--|----------2--|
|-------2-----|-------2-----|-------2-----|
|---1---------|---4---------|---3---------|
|-------------|-------------|-------------|
|-------------|-------------|-------------|


   +H.           E  E  E  E  E  E    H.
|-------------|-------------------|------------|
|-------------|-------------------|------------|
|-------------|-------------------|------------|
|-------------|-------------------|------------|
|-------------|-------------------|------------|
|-(17)--------|-13-14-14-15-14-16-|-17---------|
|
|   Q   Q  Q     Q     Q     Q       Q   Q  Q
|-------------|-------------------|------------|
|----------2--|--------------2----|---------2--|
|-------2-----|--------2----------|------2-----|
|---2---------|--1----------------|--4---------|
|-------------|-------------------|------------|
|-------------|-------------------|------------|


   +H.           +H.           +H.
|-------------|-------------|-------------|
|-------------|-------------|-------------|
|-------------|-------------|-------------|
|-------------|-------------|-------------|
|-------------|-------------|-------------|
|-(17)--------|-(17)--------|-(17)--------|
|
|   Q   Q  Q      Q   Q  Q      Q   Q  Q
|-------------|-------------|-------------|
|----------2--|----------2--|----------2--|
|-------2-----|-------2-----|-------2-----|
|---3---------|---2---------|---1---------|
|-------------|-------------|-------------|
|-------------|-------------|-------------|


   +H.           +H.           +H.
|-------------|-------------|-------------|
|-------------|-------------|-------------|
|-------------|-------------|-------------|
|-------------|-------------|-------------|
|-------------|-------------|-------------|
|-(17)--------|-(17)--------|-(17)--------|
|
|   Q   Q  Q      Q   Q  Q      Q   Q  Q
|-------------|-------------|-------------|
|----------2--|----------2--|----------2--|
|-------2-----|-------2-----|-------2-----|
|---4---------|---3---------|---2---------|
|-------------|-------------|-------------|
|-------------|-------------|-------------|


   E  E  E  E  E  E   W          W
|-------------------|----------|----------|
|-------------------|----------|----------|
|-------------------|----------|----------|
|-------------------|----------|----------|
|-------------------|----------|----------|
|-13-14-14-15-14-16-|----------|----------|
|
|  Q     Q     Q      Q  Q  Q    Q  Q  Q
|-------------------|----------|----------|
|--------------2----|-------2--|-------2--|
|--------2----------|----2-----|----2-----|
|--1----------------|-4--------|-3--------|
|-------------------|----------|----------|
|-------------------|----------|----------|


  Gtr III
  Q  Q  Q    Q  Q  Q
|----------|----------*|
|-------2--|-------2--*|
|----2-----|----2-----*|
|-2--------|-1--------*|
|----------|----------*|
|----------|----------*|



Duration Legend
---------------
W - whole; H - half; Q - quarter; E - 8th; S - 16th; T - 32nd; X - 64th; a - acciaccatura
+ - note tied to previous; . - note dotted; .. - note double dotted
Uncapitalized letters represent notes that are staccato (1/2 duration)
Irregular groupings are notated above the duration line
Duration letters will always appear directly above the note/fret number it represents the
duration for.  Duration letters with no fret number below them represent rests.  Multi-
bar rests are notated in the form Wxn, where n is the number of bars to rest for.  Low
melody durations appear below the staff

Tablature Legend
----------------
 h   - hammer-on
 p   - pull-off
 b   - bend
 pb  - pre-bend
 r   - bend release (if no number after the r, then release immediately)
 /\  - slide into or out of (from/to "nowhere")
 s   - legato slide
 S   - shift slide
 - natural harmonic
[n]  - artificial harmonic
n(n) - tapped harmonic
 ~   - vibrato
 tr  - trill
 T   - tap
 TP  - trem. picking
 PM  - palm muting
\n/  - tremolo bar dip; n = amount to dip
 \n  - tremolo bar down
 n/  - tremolo bar up
/n\  - tremolo bar inverted dip
 =   - hold bend; also acts as connecting device for hammers/pulls
 <> - volume swell (louder/softer)
 x   - on rhythm slash represents muted slash
 o   - on rhythm slash represents single note slash

Misc Legend
-----------
 |  - bar
||  - double bar
||o - repeat start
o|| - repeat end
*|  - double bar (ending)
 :  - bar (freetime)
 $  - Segno
 &  - Coda
Tempo markers -  = BPM(8/16=s8/s16), where s8 = swing 8ths, s16 = swing 16ths


            
            
Suggest correction
Creating personal tab
Creating personal tab
You can edit any tab online and save it as your Personal.

You can edit, replace or remove any tab part or add personal notes – all changes will be seen only by you.

Personal tabs can be accessed anytime from any device, even offline.
Learn more »
Give kudos to tab author, rate the tab!
1 2 3 4 5
comments
print report bad tab
guest
You may want to rate the tab now too:
select rating
Wanna post a correction for this tab? Suggest correction