Oops, an error
Loading. Please wait.

Nightfall tab

version 1
version 1

Whole song

Interactive

by Xandria
2,138 views 21 this week
no commentswrite comment
1 2 3 4 5
x 4
add to favorites
×
Save as Personal and add changes to this tab that will be seen only by you. Learn more ›
×
You can save this tab as Personal to edit and correct it or add notes. All changes will be seen only by you. Learn more »
launch autoscroll
font size
0
reset
how to read this tab
guitar tuner
edit
Autoscroll
slow
fast
+/-
esc
set tempo
stop
-------------------------------------------------------------------------------
                             Nightfall - Xandria
-------------------------------------------------------------------------------
Tabbed by: Obsimyx                                           Tuning: D Standard

0:00
Lead
d|----------------------------------------------------------------------------------------|
A|----------------------------------------------------------------------------------------|
F|-------------------------------------------------5--------------------------------------|
C|-----8---7---5-------5---7---8-------8---7---5-------8---7---8-------7---5---3----3--2--|
G|-5-5---5---5---5-5-5---5---5---5-5-5---5---5---5---5---5---5---5-3-3---3---3---3--1--0--|
D|----------------------------------------------------------------------------------------|
   * *   *   *   * * *   *   *   * * *   *   *   *   *   *   *   * * *   *   *   *

Rhythm
d|----------------------------------------------------------------------------------------|
A|----------------------------------------------------------------------------------------|
F|----------------------------------------------------------------------------------------|
C|----------------------------------------------------------------------------------------|
G|-4--4--------------------------------6--6------------------------2--2-------------4--4--|
D|-2--2--------------------------------4--4------------------------0--0-------------2--2--|
   *  *                                *  *                        *  *             

0:08
Lead
d|----------------------------------------------------------------------------------------|
A|----------------------------------------------------------------------------------------|
F|-------------------------------------------------5--------------------------------------|
C|-----8---7---5-------5---7---8-------8---7---5-------8---7---8-------7---5---3----3--2--|
G|-5-5---5---5---5-5-5---5---5---5-5-5---5---5---5---5---5---5---5-3-3---3---3---3--1--0--|
D|----------------------------------------------------------------------------------------|
   * *   *   *   * * *   *   *   * * *   *   *   *   *   *   *   * * *   *   *   *

Rhythm
d|----------------------------------------------------------------------------------------|
A|----------------------------------------------------------------------------------------|
F|----------------------------------------------------------------------------------------|
C|----------------------------------------------------------------------------------------|
G|-4-4-4-4-4-4-4-4-4-4-4-4-4-4-4-4-6-6-6-6-6-6-6-6-6-6-6-6-6-6-6-6-2-2-2-2-2-2-2-2--4--4--|
D|-2-2-2-2-2-2-2-2-2-2-2-2-2-2-2-2-4-4-4-4-4-4-4-4-4-4-4-4-4-4-4-4-0-0-0-0-0-0-0-0--2--2--|
   * * * * * * * * * * * * * * * * * * * * * * * * * * * * * * * * * * * * * * * *

0:17
d|--------------------------------------------------------------------------|
A|--------------------------------------------------------------------------|
F|--------------------------------------------------------------------------|
C|--------------------------------------------------------------------------|
G|------------------------------------------------------10-8--7--8--7--5----|
D|-0-0--0-0-0--0-0-0--0-2-3-5-3-2-0--0-0--0-0-0--0-0-0--8--6--5--6--5--3----|
   * *  * * *  * * *                 * *  * * *  * * *  *  *  *  *  *  * 

0:24
d|-------------------------------------------------------------------------------------------------------|
A|-------------------------------------------------------------------------------------------------------|
F|-------------------------------------------------------------------------------------------------------|
C|-------------------------------------------------------------------------------------------------------|
G|-2-2--2-2-2--2-2-2--2-2-2--2-6-6--6-6-6--6-6-6--6-6-6--6-4-4--4-4-4--4-4-4--4-4-4--4-2-2--2-2-2--2-6-6-|
D|-0-0--0-0-0--0-0-0--0-0-0--0-4-4--4-4-4--4-4-4--4-4-4--4-2-2--2-2-2--2-2-2--2-2-2--2-0-0--0-0-0--0-4-4-|
   * *  * * *  * * *  * * *  * * *  * * *  * * *  * * *  * * *  * * *  * * *  * * *  * * *  * * *  * * *   

0:34
d|-----------------------------------------------------------------------------------------------|
A|-----------------------------------------------------------------------------------------------|
F|-----------------------------------------------------------------------------------------------|
C|-----------------------------------------------------------------------------------------------|
G|-6-4-1-4-1-2-2--2-2-2--2-2-2--2-2-2--2-6-6--6-6-6--6-6-6--6-6-6--6-4-4--4-4-4--4-4-4--4-4-4--4-|
D|-4---------0-0--0-0-0--0-0-0--0-0-0--0-4-4--4-4-4--4-4-4--4-4-4--4-2-2--2-2-2--2-2-2--2-2-2--2-|
   *         * *  * * *  * * *  * * *  * * *  * * *  * * *  * * *  * * *  * * *  * * *  * * *  *

0:43
d|-------------------------------------------------------------------------------------------|
A|-------------------------------------------------------------------------------------------|
F|-------------------------------------------------------------------------------------------|
C|-------------------------------------------------------------------6-------------6---------|
G|-2-2--2-2-2--2-4-4-4-4-4-4-4-4---------------------5---6-----5-------------------------7---|
D|-0-0--0-0-0--0-2-2-2-2-2-2-2-2--0-0-0--0--0-0-0--0---0---4-4---4-4---4--2-2-2--2---2-2---2-|
                                  * * *  *  * * *  *   *   * *   * *   *  * * *  *   * *   *

d|--------------------------------------------------------------------------------------------|
A|--------------------------------------------------------------------------------------------|
F|--------------------------------------------------------------------------------------------|
C|----------4---------------------------------------------4-----------------------------------|
G|----------------4-----------------------3---4-----3--------------------4------4-4-4--4-4----|
D|-0-0-0--0---0-0---0--0-0-0--0--0-0-0--0---0---4-4---4-4---4--2-2-2--2----2-2--2-2-2--2-2----|
   * * *  *   * *   *  * * *  *  * * *  *   *   * *   * *   *  * * *  *    * *

0:57
Lead
d|----------------------------------------------------------------------------------------|
A|----------------------------------------------------------------------------------------|
F|-------------------------------------------------5--------------------------------------|
C|-----8---7---5-------5---7---8-------8---7---5-------8---7---8-------7---5---3----3--2--|
G|-5-5---5---5---5-5-5---5---5---5-5-5---5---5---5---5---5---5---5-3-3---3---3---3--1--0--|
D|----------------------------------------------------------------------------------------|
   * *   *   *   * * *   *   *   * * *   *   *   *   *   *   *   * * *   *   *   *

Rhythm
d|----------------------------------------------------------------------------------------|
A|----------------------------------------------------------------------------------------|
F|----------------------------------------------------------------------------------------|
C|----------------------------------------------------------------------------------------|
G|-4-4-4-4-4-4-4-4-4-4-4-4-4-4-4-4-6-6-6-6-6-6-6-6-6-6-6-6-6-6-6-6-2-2-2-2-2-2-2-2--4--4--|
D|-2-2-2-2-2-2-2-2-2-2-2-2-2-2-2-2-4-4-4-4-4-4-4-4-4-4-4-4-4-4-4-4-0-0-0-0-0-0-0-0--2--2--|
   * * * * * * * * * * * * * * * * * * * * * * * * * * * * * * * * * * * * * * * *

1:14 
d|-------------------------------------------------------------------------------------------------------|
A|-------------------------------------------------------------------------------------------------------|
F|-------------------------------------------------------------------------------------------------------|
C|-------------------------------------------------------------------------------------------------------|
G|---------------------------------------------------------2-2--2-2-2--2-2-2--2-2-2--2-6-6--6-6-6--6-4-4-|
D|---------------------------------------------------------0-0--0-0-0--0-0-0--0-0-0--0-4-4--4-4-4--4-2-2-|
                                                           * *  * * *  * * *  * * *  * * *  * * *  * * *   

1:25
d|-----------------------------------------------------------------------------------------------|
A|-----------------------------------------------------------------------------------------------|
F|-----------------------------------------------------------------------------------------------|
C|-----------------------------------------------------------------------------------------------|
G|-4-4-1-4-1-2-2--2-2-2--2-2-2--2-2-2--2-6-6--6-6-6--6-6-6--6-6-6--6-4-4--4-4-4--4-4-4--4-4-4--4-|
D|-2---------0-0--0-0-0--0-0-0--0-0-0--0-4-4--4-4-4--4-4-4--4-4-4--4-2-2--2-2-2--2-2-2--2-2-2--2-|
   *         * *  * * *  * * *  * * *  * * *  * * *  * * *  * * *  * * *  * * *  * * *  * * *  *

1:33
d|-------------------------------------------------------------------------------------------|
A|-------------------------------------------------------------------------------------------|
F|-------------------------------------------------------------------------------------------|
C|-------------------------------------------------------------------6-------------6---------|
G|-2-2--2-2-2--2-4-4-4-4-4-4-4-4---------------------5---6-----5-------------------------7---|
D|-0-0--0-0-0--0-2-2-2-2-2-2-2-2--0-0-0--0--0-0-0--0---0---4-4---4-4---4--2-2-2--2---2-2---2-|
                                  * * *  *  * * *  *   *   * *   * *   *  * * *  *   * *   *

d|----------------------------------------------------------------------------------------|
A|----------------------------------------------------------------------------------------|
F|----------------------------------------------------------------------------------------|
C|----------4---------------------------------------------4-------------------------4\----|
G|----------------4-----------------------3---4-----3--------------------4------4-4-4\----|
D|-0-0-0--0---0-0---0--0-0-0--0--0-0-0--0---0---4-4---4-4---4--2-2-2--2----2-2--2-2-2\----|
   * * *  *   * *   *  * * *  *  * * *  *   *   * *   * *   *  * * *  *    * *

1:50
Lead
d|----------------------------------------------------------------------------------------|
A|----------------------------------------------------------------------------------------|
F|-------------------------------------------------5--------------------------------------|
C|-----8---7---5-------5---7---8-------8---7---5-------8---7---8-------7---5---3----3--2--|
G|-5-5---5---5---5-5-5---5---5---5-5-5---5---5---5---5---5---5---5-3-3---3---3---3--1--0--|
D|----------------------------------------------------------------------------------------|
   * *   *   *   * * *   *   *   * * *   *   *   *   *   *   *   * * *   *   *   *

Rhythm
d|----------------------------------------------------------------------------------------|
A|----------------------------------------------------------------------------------------|
F|----------------------------------------------------------------------------------------|
C|----------------------------------------------------------------------------------------|
G|-4-4-4-4-4-4-4-4-4-4-4-4-4-4-4-4-6-6-6-6-6-6-6-6-6-6-6-6-6-6-6-6-2-2-2-2-2-2-2-2--4--4--|
D|-2-2-2-2-2-2-2-2-2-2-2-2-2-2-2-2-4-4-4-4-4-4-4-4-4-4-4-4-4-4-4-4-0-0-0-0-0-0-0-0--2--2--|
   * * * * * * * * * * * * * * * * * * * * * * * * * * * * * * * * * * * * * * * *

2:07
d|--------------------------------------------------------------------------|
A|--------------------------------------------------------------------------|
F|--------------------------------------------------------------------------|
C|-----------------------------5---4---5--------------------------------2-3-|
G|------2-------2-------5----------------------2-------2-------7------5-----|
D|-0-0--0--0-0--0--3-3--3--3-3---3---3----0-0--0--0-0--0--5-5--5--5-5-------|
   * *     * *     * *     * *   *   *    * *     * *     * *     * *

2:18
d|---------------------------------------------------------------------------------------------------------|
A|---------------------------------------------------------------------------------------------------------|
F|---------------------------------------------------------3~----------------------------------------------|
C|---------------------------------------------------------------------------------------------------------|
G|------2-------2-------5-4-5-------2-------2--7---7---7-5------------2-----------2----------7-----------7-|
D|-0-0--0--0-0--0--3-3--3-2-3--0-0--0--0-0--0--5-5-5-5-5-3----0-0-0-0-0--0--0-0-0-0--5-5-5-5-5--5--5-5-5-5-|
   * *     * *     * *         * *     * *       *   *     =  * * * *    *  * * *    * * * *    *  * * *

2:35
d|---------------------------------------------------------------------------------------|
A|---------------------------------------------------------------------------------------|
F|---------------------------------------------------------------------------------------|
C|-----------------------------------------------------7-7-10-10-9-9-3-3-7-7-3-3-7-7-5-5-|
G|---------5-----------5--7-7-----7-7-----5----5----5------------------------------------|
D|-3-3-3-3-3--3--3-3-3-3--5-5-5-5-5-5-5-5-3--3-3--3-3------------------------------------|
   * * * *    *  * * *        * *     * *    *    *    * * *  *  * * * * * * * * * * * *

2:43
d|----------------------------------------------------------------------------------------------------|
A|----------------------------------------------------------------------------------------------------|
F|----------------------------------------------------------------------------------------------------|
C|-7-7-10-10-9-9-3-3-7-7-3-3-7-7-/5-5-9-9-12-12-11-11-5-5-9-9-5-5-9-9-7-7-9-9-12-12-11-11-5-5-9-9-5-5-|
G|----------------------------------------------------------------------------------------------------|
D|----------------------------------------------------------------------------------------------------|
   * * *  *  * * * * * * * * * *  * * * * *  *  *  *  * * * * * * * * * * * * *  *  *  *  * * * * * *  
                                                                             |slowly lighten palm mute|

2:51
Solo Rhythm
d|------------------------------------------------------------------------|
A|------------------------------------------------------------------------|
F|------------------------------------------------------------------------|
C|-9-7------2------2---2---2--6------8-7-5-2-2------2---2---2--6--4--2----|
G|-----10-8-2--2-2-2-2-2-2-2--6--6-6---------0------2---2---2--6--4--0----|
D|----------0--0-0-0-0-0-0-0--4--4-4---------0--0-0-0-0-0-0-0--4--2--0----|
               * *   *   *       * *            * *   *   *  

Solo Lead
d|-16-14---------------14--15--14~--14--15--17--17b--17~--15--------------------------------------------|
A|-------17-15-17~--17---------------------------------------17--15-13-12-------------------------------|
F|------------------------------------------------------------------------14~-14b-12-14~-16br-13-17-16~-|
C|------------------------------------------------------------------------------------------------------|
G|------------------------------------------------------------------------------------------------------|
D|------------------------------------------------------------------------------------------------------|
                                                                                     =

3:01
d|-------14-17-14----14-------------------15-------------17----17-15-17-|
A|----16----------16----17-18-17-15-17-18----17-19-17-19----19----------|
F|-17-------------------------------------------------------------------|
C|----------------------------------------------------------------------|
G|----------------------------------------------------------------------|
D|----------------------------------------------------------------------|

3:03
d|-19b-19~---------------------------------------------------------------------|
A|---------17-15~-15-17-15-----13----------------------------------------------|
F|-------------------------17~----14-12/14-12-11-9-9~-11-9-8~------------------|
C|-----------------------------------------------------------------------------|
G|-----------------------------------------------------------------------------|
D|-----------------------------------------------------------------------------|

3:11
Lead
d|----------------------------------------------------------------------------------------|
A|----------------------------------------------------------------------------------------|
F|-------------------------------------------------5--------------------------------------|
C|-----8---7---5-------5---7---8-------8---7---5-------8---7---8-------7---5---3----3--2--|
G|-5-5---5---5---5-5-5---5---5---5-5-5---5---5---5---5---5---5---5-3-3---3---3---3--1--0--|
D|----------------------------------------------------------------------------------------|
   * *   *   *   * * *   *   *   * * *   *   *   *   *   *   *   * * *   *   *   *

Rhythm
d|----------------------------------------------------------------------------------------|
A|----------------------------------------------------------------------------------------|
F|----------------------------------------------------------------------------------------|
C|----------------------------------------------------------------------------------------|
G|-4--4--------------------------------6--6------------------------2--2-------------4--4--|
D|-2--2--------------------------------4--4------------------------0--0-------------2--2--|
   *  *                                *  *                        *  *             

3:19
Lead
d|----------------------------------------------------------------------------------------|
A|----------------------------------------------------------------------------------------|
F|-------------------------------------------------5--------------------------------------|
C|-----8---7---5-------5---7---8-------8---7---5-------8---7---8-------7---5---3----3--2--|
G|-5-5---5---5---5-5-5---5---5---5-5-5---5---5---5---5---5---5---5-3-3---3---3---3--1--0--|
D|----------------------------------------------------------------------------------------|
   * *   *   *   * * *   *   *   * * *   *   *   *   *   *   *   * * *   *   *   *

Rhythm
d|----------------------------------------------------------------------------------------|
A|----------------------------------------------------------------------------------------|
F|----------------------------------------------------------------------------------------|
C|----------------------------------------------------------------------------------------|
G|-4-4-4-4-4-4-4-4-4-4-4-4-4-4-4-4-6-6-6-6-6-6-6-6-6-6-6-6-6-6-6-6-2-2-2-2-2-2-2-2--4--4--|
D|-2-2-2-2-2-2-2-2-2-2-2-2-2-2-2-2-4-4-4-4-4-4-4-4-4-4-4-4-4-4-4-4-0-0-0-0-0-0-0-0--2--2--|
   * * * * * * * * * * * * * * * * * * * * * * * * * * * * * * * * * * * * * * * *

3:36                                                     |3:47
d|-------------------------------------------------------|-----------------------------------|
A|-------------------------------------------------------|-----------------------------------|
F|-------------------------------------------------------|-----------------------------------|
C|-2--2--3--3--6--6-3--3--5--5--6--6-8--8--6--6--9--9-8--|-----------------------------------|
G|-------------------------------------------------------|--2-2--2-2--2-2--2-2--6---4---2----|
D|-0--0--1--1--4--4-1--1--3--3--4--4-6--6--4--4--7--7-6--|--0-0--0-0--0-0--0-0--4-4-2-2-0----|
                                                            * *  * *  * *  * *    *   *

************************************

| /   slide up
| \   slide down
| h   hammer-on
| p   pull-off
| ~   vibrato
| +   harmonic
| x   Mute note
| b   Bend
| pb  Pre-bend
| br  Bend release
| pbr Pre-bend release
| brb Bend release bend
| *   Palm mute
| =   Artificial harmonic

************************************
Suggest correction
Creating personal tab
Creating personal tab
You can edit any tab online and save it as your Personal.

You can edit, replace or remove any tab part or add personal notes – all changes will be seen only by you.

Personal tabs can be accessed anytime from any device, even offline.
Learn more »
comments
print report bad tab
guest
You may want to rate the tab now too:
select rating
Wanna post a correction for this tab? Suggest correction