Oops, an error
Loading. Please wait.

Now And Forever Tab

2,052 views 1 this week
no commentswrite comment
1 2 3 4 5
2 more votes to show rating
add to favorites
launch autoscroll
font size
0
reset
how to read this tab
guitar tuner
Autoscroll
slow
fast
+/-
esc
set tempo
stop
Help us to improve Ultimate-Guitar.com Take our survey!
×
Author
Now And Forever Tab by Xandria
Tabbed by: Irene  IreneSki08@hotmail.com

Intro(after keyboard’s first time):
|---------------------|
|---------------------| 
|--7--3-----5---------|
|--7--3--3--5---------|
|--5--1--3--3---------|
|--------1------------|

Verse (keyboard):
Gm          Eb              Bb             Gm
Millions of songs all those years in my   soul
And when we met I just     knew they΄re for you
(guitar enters)
|-----------------------------------|       |--------------|
|-----------------------------------|       |--------------|
|----------------3------------------| x2    |----3---------|
|---5-----1------3-------5----------|       |----3------3--|
|---5-----1------1-------5----------|       |----1------3--|             
|---3--------------------3----------|       |-----------1--|
    Now…voice..singing..all                     On and on
   Wings mine.. never...fall


Chorus:
|--------------------------|
|--------------------------| 
|--7--3----------5---------|
|--7--3----3-----5---------|
|--5--1----3-----3---------|
|----------1---------------|
  Fly-y  now &forever

Verse 2 like verse 1
Chorus

Bridge:
Keyboard plays 2 times: Em  C  G  D
Then:
|--------------------------|
|--------------------------| 
|--7--3----------5---------|  x2
|--7--3----3-----5---------|
|--5--1----3-----3---------|
|----------1---------------|
          Now & forever

Solo:
|--------------------------------------------------------------|
|--------------------------------------------------------------| 
|--------------------------------------------------------------|
|--------------------7-------------------------7---8-8\7--7\5--|
|--5---5-7--7-8-7--8---------5---5-7--7-8-7--8-----------------|
|--------------------------------------------------------------|

Chorus:
|--------------------------|
|--------------------------| 
|--7--3----------5---------|
|--7--3----3-----5---------|
|--5--1----3-----3---------|
|----------1---------------|
  Fly-y  now &forever
Finish with keyboards
Suggest correction
Give kudos to tab author, rate the tab!
1 2 3 4 5
comments
print report bad tab
guest
You may want to rate the tab now too:
select rating
Wanna post a correction for this tab? Suggest correction