Oops, an error
Loading. Please wait.

Kati San Psema Tab

28 views 3 this week
no commentswrite comment
1 2 3 4 5
3 more votes to show rating
add to favorites
launch autoscroll
font size
0
reset
how to read this tab
guitar tuner
Autoscroll
slow
fast
+/-
esc
set tempo
stop
Help us to improve Ultimate-Guitar.com Take our survey!
×
Author
Difficulty
novice
[0:00-0:23] CLEAN

e|-----------------------------------------------------------------------------------------|
B|-----------------------------------------------------------------------------------------|
G|-----------------------------------------------------------------------------------------|
D|---2-2-3-2-3-2-3-2--2---2-2-3-2-3-5-3-2--0-2-3-2-3-2--3-2-2-0h2-2-0--------------2/3-2---|
A|-0--------------------0-----------------------------------------------2-2------3---------|
E|--------------------------------------------------------------------3----3-2-1-----------|

e|-----------------------------------------------------------------------------------------|
B|-----------------------------------------------------------------------------------------|
G|-----------------------------------------------------------------------------------------|
D|---2-2-3-2-3-2-3-2--2---2-2-3-2-3-5-3-2--0-2-3-2-3-2--3-2-2-0h2-2-0----------------------|
A|-0--------------------0-----------------------------------------------2-2---------3/5-5--|
E|--------------------------------------------------------------------3----3-2-1--3--------|
  

[0:23-0:47] DISTORTION ON

e|-----------------------------------------------------------------------------------------|
B|-----------------------------------------------------------------------------------------|
G|-----------------------------------------------------------------------------------------|
D|---2-2-3-2-3-2-3-2--2---2-2-3-2-3-5-3-2--0-2-3-2-3-2--3-2-2-0h2-2-0--------------2/3-2---|
A|-0--------------------0-----------------------------------------------2-2------3---------|
E|--------------------------------------------------------------------3----3-2-1-----------|

e|-----------------------------------------------------------------------------------------|
B|-----------------------------------------------------------------------------------------|
G|-----------------------------------------------------------------------------------------|
D|---2-2-3-2-3-2-3-2--2---2-2-3-2-3-5-3-2--0-2-3-2-3-2--3-2-2-0h2-2-0----------------------|
A|-0--------------------0-----------------------------------------------2-2---------3/5-5--|
E|--------------------------------------------------------------------3----3-2-1--3--------|


[0:42-0:47]

e|------------------------------------------------|
B|------------------------------------------------|
G|-2-x-2-x-2---------------2-x-2-x-2 -------------|
D|-2-x-2-x-2---------------2-x-2-x-2--------------|
A|-0-x-0-x-0-----0-2-3-2---0-x-0-x-0--0-----------|
E|-----------0-3---------3--------------4-3-3 ----|


[0:47-1:05]

e|----------------------------------------------------------------------------------------------------------|
B|----------------------------------------------------------------------------------------------------------|
G|----------------------------------------------------------------------------------------------------------|
D|-2-2-3-2-3-2-3-2--2-2-2-3-2-3-5-3-2-5555555----------2-2-3-2-3-2-3-2--2---2-2-3-2-3-5-3-2-5555555---------|
A|0------------------0----------------3333333-555-333-0-------------------0-----------------3333333-555-333-|
E|--------------------------------------------333-111-----------------------------------------------333-111-|


[1:05-1:24]

e|--------------------------------------------------------------------------------------------|
B|--------------------------------------------------------------------------------------------|
G|-2-------2----------------------------------------------------------------------------------|
D|-2-------2-----5555555--------------2-2-3-2-3-2-3-2--2---2-2-3-2-3-5-3-2--5555555-----------|
A|-0-------0-----3333333-555-333----0--------------------0------------------3333333-555-333---|
E|-----------------------333-111----------------------------------------------------333-111---|


[1:24-1:42]

e|---x-x-x-x-x-x--------------------------------------------------------------------------------------------|
B|---x-x-x-x-x-x--------------------------------------------------------------------------------------------|
G|-2-x-x-x-x-x-x-------------------------------------------------------------5---7---5---4---5---7---5---4--|
D|-2-x-x-x-x-x-x--0----------------------------------------------------------7---9---7---5---7---9---7---5--|
A|-0-x-x-x-x-x-x---3p2-3p2-------3---5---3---2---2h3------5---7---8--7-8-7---0---0---0---0---0---0---0---0--|
E|---x-x-x-x-x-x----------3-3--1---1---1---1---1--------3---3---3-------------------------------------------|
    |__5th fret__|

e|--------------------------------------------------|
B|--------------------------------------------------|
G|---5---7---5---4---4h5------7---9---10--9-10-9----|
D|-3---3---3---3---3--------5---5---5---------------|
A|--------------------------------------------------|
E|--------------------------------------------------|


[1:42-2:00]

e|---x-x-x-x-x-x--------------------------------------------------------------------------------------------|
B|---x-x-x-x-x-x--------------------------------------------------------------------------------------------|
G|-2-x-x-x-x-x-x-------------------------------------------------------------5---7---5---4---5---7---5---4--|
D|-2-x-x-x-x-x-x--0----------------------------------------------------------7---9---7---5---7---9---7---5--|
A|-0-x-x-x-x-x-x---3p2-3p2-------3---5---3---2---2h3------5---7---8--7-8-7---0---0---0---0---0---0---0---0--|
E|---x-x-x-x-x-x----------3-3--1---1---1---1---1--------3---3---3-------------------------------------------|
    |__5th fret__|
e|-------------------------------------------------5b-----|
B|--------------------------------------------------------|
G|---5---7---5---4---4h5------7---9---10--9-10-9----------|
D|-3---3---3---3---3--------5---5---5---------------------|
A|--------------------------------------------------------|
E|--------------------------------------------------------|



************************************

| x  Dead note
| h  Hammer-on
| p  Pull-off
| b  Bend
| /  Slide up

************************************
Suggest correction
Give kudos to tab author, rate the tab!
1 2 3 4 5
comments
print report bad tab
guest
You may want to rate the tab now too:
select rating
Wanna post a correction for this tab? Suggest correction