Oops, an error
Loading. Please wait.

Ich Kenne Nichts Tab

version 4
version 4

Whole song

5,909 views 6 this week
1 commentread comment
1 2 3 4 5
please rate
add to favorites
launch autoscroll
font size
0
reset
how to read this tab
guitar tuner
Autoscroll
slow
fast
+/-
esc
set tempo
stop
Help us to improve Ultimate-Guitar.com Take our survey!
×
Hi Guys!

Thats my first Tab! Plz Comment!

--------1-----------1-------|-----0--------|
-----3-----3-----3-----3----|-----1--------|
--3-----------2-------------|-----0--------|
----------------------------|-----2--------|
----------------------------|-----3--------|
--3-----------3-------------|--------------|
Suggest correction
Give kudos to tab author, rate the tab!
1 2 3 4 5
comments
print report bad tab
1 comment total.
0 reply
vesh911 30 wrote on February 14 2012, 07:53 am

e----------1---------------1------3-------------
------3--------3-------1-------------------------
---3---------------2---------------------------
---------------------------------------------
--------------------------------
E--3---------------------------------------

so its right! (:

guest
You may want to rate the tab now too:
select rating
Wanna post a correction for this tab? Suggest correction