Oops, an error
Loading. Please wait.

Gba Tab

9,321 views 6 this week
1 commentread comment
1 2 3 4 5
accurate
x 1
add to favorites
launch autoscroll
font size
0
reset
how to read this tab
guitar tuner
Tab Pro tools
  • play this tab
  • loop segment
  • change instrument
  • show fretboard
  • metronome
Autoscroll
slow
fast
+/-
esc
set tempo
stop
Contributor
Difficulty
intermediate
As you no this is xaxier rudds G B A which I love so enjoy it

Lapslide Tuning - E B E G B E

Intro + Verse
----------------
Eb|---------------------|------------------------|
Bb|---------------------|------------------------|
Ab|---------------------|------------------------|
Eb|--7--7--x-x-x-7-x-x--|--5--5-x-x--------------|
Bb|--5--5--x-x-x-5-x-x--|--3--3-x-x--(2h3p2p0----|
Eb|---------------------|---------------------3)-|

() part only in the intro. Just play the chord again.

Eb|--------------------------|--------------------||
Bb|--------------------------|--------------------||
Ab|--------------------------|--2--2-------2------||
Eb|0--/5--5-000-/5p0-/3-0----|--0--0-x-x-x-0-x-x -||
Bb|0--/5--5-000-/5p0-/3-0----|--0--0-x-x-x-0-x-x--||
Eb|0--/5--5-000-/5p0-/3-0----|--0--0-x-x-x-0-x-x--||


Verse Variation

------------------
Eb|------------------------|--------------------------||
Bb|------------------------|--------------------------||
Ab|------------------------|--------------------------||
Eb|--/7--/7--x-x-x-/7-x-x--|--/10--/10-x-x-x-/10-x-x -||
Bb|--/7--/7--x-x-x-/7-x-x--|--/10--/10-x-x-x-/10-x-x--||
Eb|--/7--/7--x-x-x-/7-x-x--|--/10--/10-x-x-x-/10-x-x--||

Eb|-------------------------|--------------------||
Bb|-------------------------|--------------------||
Ab|-------------------------|--2--2-------2------||
Eb|--/5--5-000-/5p0-/3-0----|--0--0-x-x-x-0-x-x -||
Bb|--/5--5-000-/5p0-/3-0----|--0--0-x-x-x-0-x-x--||
Eb|--/5--5-000-/5p0-/3-0----|--0--0-x-x-x-0-x-x--||

Chorus

Eb|--------------------|------------3--p0----|
Bb|--------5-3-3-2-3----|-------3h5----------|
Ab|--------------------|---------------------|
Eb|--7-7---------------|--5-5----------------|
Bb|--5-5---------------|--3-3----------------|
Eb|--------------------|---------------------|

Eb|--------------------------|--------------------||
Bb|--------------------------|--------------------||
Ab|--------------------------|--2--2-------2------||
Eb|0--/5--5-000-/5p0-/3-0----|--0--0-x-x-x-0-x-x -||
Bb|0--/5--5-000-/5p0-/3-0----|--0--0-x-x-x-0-x-x--||
Eb|0--/5--5-000-/5p0-/3-0----|--0--0-x-x-x-0-x-x--||
comments
We did not receive enough feedback on this tab! Please rate:
print report bad tab
1 2 3 4 5
1 comment total.
0 reply
jamaicaroma wrote on October 27 2008, 10:02 am

I wonder whether there is a part missing to this tab?

I think part of it goes something along the lines of this:
03:25
Eb|----------------------|------------------------|
Bb|----------------------|------------------------|
Ab|-4---4/6---6/7---7/9--|-9/11---11/14---14/16---|
Eb|-0---0-0---0-0---0-0--|-0--0----0--0----0--0---|
Bb|----------------------|------------------------|
Eb|----------------------|------------------------|

But im not quite sure.

I want to post or [tab]
guest
You may want to rate the tab now too:
select rating
Please do not post tabs as comments. Select "correction" instead!