Oops, an error
Loading. Please wait.

Little Chief Chords

6,987 views 12 this week
3 commentsread comments
1 2 3 4 5
1 last vote to show rating
add to favorites
launch autoscroll
font size
0
reset
transpose
0
reset
simplify chords
display chords
guitar tuner
Autoscroll
slow
fast
+/-
esc
set tempo
stop
Help us to improve Ultimate-Guitar.com Take our survey!
×
Author
Difficulty
novice
-------------------------------------------------------------------------------
                             SONG NAME - Band Name
-------------------------------------------------------------------------------
Tabbed by: Chrisio09
Email: chrisdavisuk@yahoo.co.uk
This is an amazing song, by a guy with an awesome voice.  Listen to more of his stuff if
get a chance, hes also pretty handy with a didgeridoo.
It wasnt easy pickin out all the chords but i think this is close, let me know what you
comments would be greatly appreciated, cheers, enjoy

Tuning: standard

Chords used:
  Em7  Cadd9  Gm*(not sure of the name of this
 F     G
e|-x-----x-----3--------------------------------------x-----1-----3----------|
B|-x-----3-----x--------------------------------------x-----3-----2----------|
G|-2-----2-----0--------------------------------------2-----3-----0----------|
D|-0-----0-----0--------------------------------------2-----2-----0----------|
A|-3-----3-----3--------------------------------------3-----1-----3----------|
E|-3-----3-----3--------------------------------------3-----1-----3----------|

Intro -    Em7   Cadd9   Gm*   Dsus4 X2

Verse -    Em7   Cadd9   Gm    Dsus4 X6

Chorus -   F     Gm*     F     G     X3
           F     Gm*     F     Em7

Intro

Verse


I dont know if its 100% accurate but it sounds nice playin it live, let me know wht you
cos its a beautiful song

Laters
Suggest correction
Give kudos to tab author, rate the tab!
1 2 3 4 5
comments
print report bad tab
3 comments total.
0 reply
Chrisio09 102 Jun 22, 2006 01:39 PM

sorry, just got the chords slightly wrong
F G
E|-x-----x-----3--------------------------------------x-----1-----3----------|
A|-x-----3-----x--------------------------------------x-----3-----2----------|
D|-2-----2-----0--------------------------------------2-----3-----0----------|
G|-0-----0-----0--------------------------------------2-----2-----0----------|
B|-3-----3-----3--------------------------------------3-----1-----3----------|
e|-3-----3-----3--------------------------------------3-----1-----3----------|

just typed them in upside down, im sure u can work it out

0 reply
TheRolingStoner 211 Jun 28, 2006 07:02 AM

nice work xaiver rudd is the best

0 reply
howgood 63 Sep 21, 2014 10:56 AM

didn't like this contribution

guest
You may want to rate the tab now too:
select rating
Wanna post a correction for this tab? Suggest correction