Oops, an error
Loading. Please wait.

White Moth Tab

6,066 views 1 this week
2 commentsread comments
1 2 3 4 5
2 more votes to show rating
add to favorites
launch autoscroll
font size
0
reset
how to read this tab
guitar tuner
×
Best way to learn
"White Moth"
Autoscroll
slow
fast
+/-
esc
set tempo
stop
e |---------------------------------------------------------|
B |------7---7----7-7---------------------------------------|
G |---------------------------4-4---6--6--------------------|
D |---------------------------------------------------------|
A |------5--------4-----0-----2-----4-----4-----------------|
E |---------------------------------------------------------|
Suggest correction
Give kudos to tab author, rate the tab!
1 2 3 4 5
comments
print report bad tab
2 comments total.
0 reply
willmn 10 Mar 04, 2008 12:47 AM

e |---------------------------------------------------------|
B |-------7---7---3-----------------------------------------|
G |-------7---7---4---6-------------------------------------|
D |-------7---7---4---7-------------------------------------|
A |-------5---4---2---7-------------------------------------|
E |-------------------5-------------------------------------|

0 reply
Mz Sprinklehead 10 Jun 05, 2009 09:26 PM

no offence but this is a really bad tab. it has NO tips whatsoever and it sounds wrong
:(

guest
You may want to rate the tab now too:
select rating
Wanna post a correction for this tab? Suggest correction