Oops, an error
Loading. Please wait.

Mladite Ne Se Mladi Bass Tab

65 views 1 this week
no commentswrite comment
1 2 3 4 5
please rate
add to favorites
launch autoscroll
font size
0
reset
guitar tuner
Autoscroll
slow
fast
+/-
esc
set tempo
stop
Help us to improve Ultimate-Guitar.com Take our survey!
×
Author
Difficulty
intermediate
Intro:
G|--------------------------------------------------------------------------------|
D|-----------5--4--------------5--4--------------5--4-----------------------------|
A|--5--5--5--------5--5--5--5--------5--5--5--5--------5--------2--2--3--3--5--5--|
E|--------------------------------------------------------3--3--------------------|

Verse:
G|---------------------------------------------------------------------------|
D|---------------------------------------------------------------------------|
A|--5--5--5--5--5--5--5--5--5--5--5--5--3--3--3--3--3--2--0--------2----3--5-|
E|-----------------------------------------------------------3--3-----3------|

Chorus:

G|--------------------------------------------------------------------------|
D|--------------------------4--4--4--4--4--4--4--4--3--3--3--3--3--3--3--3--|
A|--5--5--5--5--5--5--5--5--------------------------------------------------|
E|--------------------------------------------------------------------------|

G|-----------------------------------|
D|-----------5--4--------------5--4--|
A|--5--5--5--------5--5--5--5--------|
E|-----------------------------------|

G|--------------------------------------------------------------------------|
D|--------------------------4--4--4--4--4--4--4--4--3--3--3--3--3--3--3--3--|
A|--5--5--5--5--5--5--5--5--------------------------------------------------|
E|--------------------------------------------------------------------------|

G|--------------------------------------------------------------------------------|
D|-----------5--4--------------5--4--------------5--4-----------------------------|
A|--5--5--5--------5--5--5--5--------5--5--5--5--------5--------2--2--3--3--5--5--|
E|--------------------------------------------------------3--3--------------------|
Suggest correction
Give kudos to tab author, rate the tab!
1 2 3 4 5
comments
print report bad tab
guest
You may want to rate the tab now too:
select rating
Please do not post tabs as comments. Select "correction" instead!